» » »

Madonna, Ray Of Light Tabs (ver.3)

Artists:  A B C D E F G H I J K L M N O P Q R S T U V W X Y Z # 

Ray Of Light Tabs (ver.3)

Madonna Tabs
 Rating:
4/5 (4 votes)
Ray Of Light lessons Tabs too difficult? Try these video lessons and learn fast
                Las otras 2 tablaturas están bien, pero estan fuera de tono.

Intro

Bb           Cm          Dm          D#
--------------------------------------------------|
---3-----3-----4-----4-----6-----6-----8-----8----|
-3---3-3---3/5---5-5---5/7---7-7---7/8---8-8---8--|
--------------------------------------------------|
--------------------------------------------------|
--------------------------------------------------|

Verse
 Bb     D#
-------------|
--------8-8--|
-7-7----8-8--|
-8-8----8-8--|
-8-8----6-6--|
-6-6---------|

Chorus

Bb    Cm     Dm    D#
----------------------|
-3-----4-----6-----8--|
-3-----5-----7-----8--|
-3-----5-----7-----8--|
-1-----3-----5-----6--|
----------------------|

For me, it's pretty well.
            
Submit corrections

comments powered by Disqus
↑ Back to top | Madonna Tabs for Ray Of Light. Lyrics for acoustic guitar and electric guitar. Tablatures and chords are parodies/interpretations of the original songs. You may use it for private study, scholarship, research or language learning purposes only