» » »

Madonna, Ray Of Light Tabs (ver.2)

Artists:  A B C D E F G H I J K L M N O P Q R S T U V W X Y Z # 

Ray Of Light Tabs (ver.2)

Madonna Tabs
 Rating:
4/5 (4 votes)
Ray Of Light lessons Tabs too difficult? Try these video lessons and learn fast
                #                                                                              #

Maddonna: Ray Of Light

INTRO
e|---------------------------------|
B|-3---3---4---4---6---6---8---8---|
G|3-3-3-3-5-5-5-5-7-7-7-7-8-8-8-8--|

Verse and Chorus   (Through out)
D-8---3---8---3-|
A-8---3---8---3-|
E-6---1---6---1-|

2nd Guitar (In chorus)		
e--------------------|
B--3---3---3---3--3--|
G-3-3-3-3-3-3-3-3--3-|

Then Intro Again


Pretty Simple Really
            
Submit corrections

comments powered by Disqus
↑ Back to top | Madonna Tabs for Ray Of Light. Lyrics for acoustic guitar and electric guitar. Tablatures and chords are parodies/interpretations of the original songs. You may use it for private study, scholarship, research or language learning purposes only