>
 >
Material Girl 4

Material Girl 4 Bass Tabs

Madonna - Material Girl 4 chords, tabs, tablatures, lyrics

Guitar lessons | Add/correct | Request | Top 50 tabs Artists:  A B C D E F G H I J K L M N O P Q R S T U V W X Y Z 0-9

Material Girl 4 Bass Tabs – Madonna

CD, Sheet music, Poster

Do you like Material Girl 4? Share with your friends now
Bass TabsBass Tabs v2Bass Tabs v3Bass Tabs v4ChordsChords v2Chords v3Ukulele
Here's my correction of the other tab of Material girl

Intro x8
---------------------------------|
---------------------------------|
-3---3-----3-----3---3-----3-----|
---------3-----3---------3-----3-|

Verse x2
---------------------------------|
---------------------------------|
-3---3-----3-----3---3-----3-----|
---------3-----3---------3-----3-|

---------------------------------|
---------------------------------|
-1---1-----1-----1---1-----1-----|
---------1-----1---------1-----1-|

---------------------------------|
---------------------------------|
-0---0-----0-----0---0-----0-----|
---------0-----0---------0-----0-|

---------------------------------|
---------------------------------|
-3---3-----3-----3---3-----3-----|
---------3-----3---------3-----3-|

---------------------------------|
-----------5---------------------|
-5---5-----------3---3-----3-----|
---------3-----3---------3-----3-|

Chorus x2
---------------------------------|
-----------5---5-----------7---5-|
---------------------------------|
-1-----3-----3---3-----5-----3---|

---------------------------------|
-----------5-------7---7---7---5-|
---------------------------------|
-1-----3-----3-5-----5---5---3---|

Thoses three parts for the whole song..





Comments


Popular Madonna tabs & chords
Material Girl Bass Tabs
Celebration Chords
Get Together Chords
Hung Up Chords
Ray Of Light Tabs
Beautiful Stranger Ukulele
Paradise Is Not For Me Ukulele
Skin Ukulele
Something To Remember Ukulele
The Power Of Goodbye Ukulele


Song lyrics



↑ Back to top | Tablatures and chords are parodies/interpretations of the original songs. You may use it for private study, scholarship, research or language learning purposes only
© 2014 AZChords.com Contact us | Privacy policy | DMCA | Add/correct tabs | Request tabs | Top 50 tabs