» » »

Like A Virgin Bass tabs (ver.1)

Artists:  A B C D E F G H I J K L M N O P Q R S T U V W X Y Z # 

Like A Virgin Bass tabs (ver.1)

Madonna
Rating:
0/5 (0 votes)

Tabs too difficult? Try these video lessons and learn fast.
                Madonna
Standard Tuning EADG - There are some fills in the tune...ad lib.
listen for the structure
 
verse F#
G|-----------------------------------|
D|*---4-----------4-4---------------*|
A|*------6---4--------6---4---6-----*|
E|-----------------------------------|
 
pre chorus G#          
      1  + 2 + 3 + rest hold
G|------------------------------------|
D|----6-6-6-6-6-6-------6-6-6-6~------|
A|------------------------------------|
E|------------------------------------|
 
chorus G#, D#, G#, D#, C#
G|-----------------------------------|
D|6-6-6-6-6-4-6-6--------------------|
A|-------------------6-6-6-6-6-4-6-6-|
E|-----------------------------------|
 
G|----------------------------------------------------|
D|6-6-6-6-6-4-6-6-------------------------------------|
A|-------------------6-6-6-6-6-4-6-6--4-4-4-4-4-6-4-4-|
E|----------------------------------------------------|
 

bridge D#, G#, D#, G#, D#, G#, D#, G#, 
G|------------------------------------------------|
D|------------------------------------------------|
A|6-6-6-6-6-6-6-6-------11-11-11-11-11-11-11-11---|  3X
E|------------------------------------------------|
 
G|---------------------------------------|
D|---------------------------------------|
A|6-6-6-6-6-6-6-6-------11---11---11-----|  
E|---------------------------------------|
            
Tabs too difficult? Try these video lessons and learn fast.




comments powered by Disqus
↑ Back to top | Tablatures and chords are parodies/interpretations of the original songs. You may use it for private study, scholarship, research or language learning purposes only