» » »

Madonna, Hung Up Tabs (ver.2)

Artists:  A B C D E F G H I J K L M N O P Q R S T U V W X Y Z # 

Hung Up Tabs (ver.2)

Madonna Tabs
Rating:
5/5 (1 vote)
Hung Up lessons Tabs too difficult? Try these video lessons and learn fast
                (Intro)
Hung Up - Madonna
-----------------

Use sweep picking to play this.


       S  S  S  S S  S  S  S  H         
E||------------10---10-----------------|
B||---------10---------10--------------|
G||*-----10---------------10-----------|
D||*--12---------------------12--------|
A||------------------------------------|
E||------------------------------------|


   S  S  S  S S  S  S  S  S S  S  S  Q        S  S  S  S S  S  S  S  H         
-----------10---10------------------------|-----------13---13-12------------|
--------10---------10---------------10----|--------13------------13---------|
-----10---------------10----9-10-12-------|-----14------------------14------|
--12---------------------12---------------|--15-----------------------------|
------------------------------------------|---------------------------------|
------------------------------------------|---------------------------------|


   S  S  S  S S  S  S  S  H         4x
-----------12---10------------------||
--------13---------10---------------||
-----14---------------10-----------*||
--14---------------------12--------*||
------------------------------------||
------------------------------------||




Duration Legend
---------------
W - whole
H - half
Q - quarter
E - 8th
S - 16th
T - 32nd
X - 64th
            

comments powered by Disqus
↑ Back to top | Madonna Tabs for Hung Up. Lyrics for acoustic guitar and electric guitar. Tablatures and chords are parodies/interpretations of the original songs. You may use it for private study, scholarship, research or language learning purposes only