» » »

Celebration Tabs (ver.1)

Artists:  A B C D E F G H I J K L M N O P Q R S T U V W X Y Z # 

Celebration Tabs (ver.1)

Madonna
Rating:
0/5 (0 votes)

Hard to play? Try these video lessons and learn fast.
                
I believe it looks something like this. Listen to the song for the stum pattern.

Drop D Tuning

Main Riff:
e|------------------|
G|------------------|
B|------------------|
D|------------------|
A|---------2-2-22-2-|
D|--0--2-2----------|

Chorus:
e|-----------------|
G|-----------------|
B|------------4----|
D|--0----2----4----|
A|--0----2----2----|
D|--0----2---------|
  (x4) (x4)  (x8)
            
Hard to play? Try these video lessons and learn fast. | Correct




comments powered by Disqus
↑ Back to top | Tablatures and chords are parodies/interpretations of the original songs. You may use it for private study, scholarship, research or language learning purposes only