» » »

Madness, Prince Bass tabs (ver.1)

Artists:  A B C D E F G H I J K L M N O P Q R S T U V W X Y Z # 

Prince Bass tabs (ver.1)

Madness Tabs
 Rating:
4/5 (4 votes)
Prince lessons Tabs too difficult? Try these video lessons and learn fast
                Main Riff (Play With Slides)
  4x             2x              2x              1x 
G:--------------|--5-5-5-5------|--5-5-5-5------|--7-7-7-7------|
D:-5-5-5-5------|----------5-5--|----------5-5--|----------7-7--|
A:---------5-5--|---------------|---------------|---------------|
E:--------------|---------------|---------------|---------------|

  1x             2x
G:-5-5-5-5------|--------------|
D:---------5-5--|-5-5-5-5------|
A:--------------|---------5-5--|
E:--------------|--------------|

The Progression Changes A Little Bit During The Solos And Such...
But It's All The Same Notes...So Just Listen And Play Along.

Adam Marish
Royal Noise Brigade - Pennsylvania's Freshest Ska
            
Submit corrections

comments powered by Disqus
↑ Back to top | Madness Bass for Prince. Lyrics for acoustic guitar and electric guitar. Tablatures and chords are parodies/interpretations of the original songs. You may use it for private study, scholarship, research or language learning purposes only