» » »

Madness, One Step Beyond Tabs (ver.2)

Artists:  A B C D E F G H I J K L M N O P Q R S T U V W X Y Z # 

One Step Beyond Tabs (ver.2)

Madness Tabs
 Rating:
4/5 (4 votes)
One Step Beyond lessons Tabs too difficult? Try these video lessons and learn fast
1
                (Intro)
This is my first tab so go easy on me :)

This isnt the guitar part that chrissy plays, but the sax part.

I translated this from sheet music, so it could be played in a differant position,

Tuning: EADGBe

"Hey you, don't watch that
Watch this!
This is the heavy heavy monster sound
The nuttiest sound around
So if you've come in off the street
And you're beginning to feel the heat
Well listen buster
You better start to move your feet
To the rockinest, rock-steady beat
Of Madness
One step beyond!"

PLAY TWICE:
 ------------|------------------|
 ------------|------------------|
 ------------|------------------|
 --------7---|------------------|
 --5--8------|-10-8-10-8--5-----|
 ------------|------------------|

PLAY ONCE

 ------------|-----------------------|
 ------------|-----------------------|
 ------------|-----------------------|
 --------7---|-----------------------|
 --5--8------|-10-8-10-8-10-8-5------|
 ------------|-----------------------|

PLAY ONCE
 ------------|--------------|--------------|
 ------------|--------------|--------------|
 ------------|--------------|--------------|
 --------2---|--------------|--------------|
 --0--3------|-8-8-7-8-7-8--|--0--10--7----|
 ------------|--------------|--------------|

"ONE STEP BEYOND"

PLAY ONCE

 ------------|------------------|
 ------------|------------------|
 ------------|------------------|
 --------7---|------------------|
 --5--8------|-10-8-10-8--5-----|
 ------------|------------------|

PLAY ONCE

 ------------------|
 ------------------|
 ------------------|
 -----------7---5--|
 --10-10--8---8----|
 ------------------|

PLAY ONCE


 ------------------|
 ------------------|
 ------------------|
 -7-7-----7-----5--|
 ------8-----8-----|
 ------------------|
            
Submit corrections

comments powered by Disqus
↑ Back to top | Madness Tabs for One Step Beyond. Lyrics for acoustic guitar and electric guitar. 1 Tablatures and chords are parodies/interpretations of the original songs. You may use it for private study, scholarship, research or language learning purposes only