» » »

One Step Beyond Bass tabs (ver.2)

Artists:  A B C D E F G H I J K L M N O P Q R S T U V W X Y Z # 

One Step Beyond Bass tabs (ver.2)

Madness
Rating:
0/5 (0 votes)

Hard to play? Try these video lessons and learn fast.
                ---------------------------------------------------------------------
			     One Step Beyond - Madness
---------------------------------------------------------------------


Tuning: Standard EADG


G|-----0-----1-5-1-----0-------0----------|
D|---1---1-3---------1---1---1---1--------|   X3
A|-3---------------3-------3--------------|
E|----------------------------------------|

G|-------------------------------0--------|
D|-----0---0-----0---0-----0---0---3-1-0--|
A|---2---2-----2---2-----2---2------------|
E|-3---------3---------3------------------|

G|-----0-----1-5-1-----0-------0----------|
D|---1---1-3---------1---1---1---1--------|
A|-3---------------3-------3--------------|
E|----------------------------------------|

G|-----0-------0-------0-------0---------|
D|---1---1---1---1---1---1---1---1-------|    X2
A|-3-------3-------3-------3-------------|
E|---------------------------------------|

G|-------------------------------0--------|
D|-----0---0-----0---0-----0---0---3-1-0--|
A|---2---2-----2---2-----2---2------------|
E|-3---------3---------3------------------|

G|-----0-------0-------0-------0---------|
D|---1---1---1---1---1---1---1---1-------|
A|-3-------3-------3-------3-------------|
E|---------------------------------------|

G|-------------------------------0--------|
D|-----0---0-----0---0-----0---0---3-1-0--|
A|---2---2-----2---2-----2---2------------|
E|-3---------3---------3------------------|

G|-----0-----1-5-1-----0-------0----------|
D|---1---1-3---------1---1---1---1--------|   X2
A|-3---------------3-------3--------------|
E|----------------------------------------|

G|-------------------------------0--------|
D|-----0---0-----0---0-----0---0---3-1-0--|
A|---2---2-----2---2-----2---2------------|
E|-3---------3---------3------------------|

G|-----0-----1-5-1-----0-------0----------|
D|---1---1-3---------1---1---1---1--------|   X2
A|-3---------------3-------3--------------|
E|----------------------------------------|

G|-------------------------------0--------|
D|-----0---0-----0---0-----0---0---3-1-0--|
A|---2---2-----2---2-----2---2------------|
E|-3---------3---------3------------------|

G|-----0-----1-5-1-----0-----1-5-1--------|
D|---1---1-3---------1---1-3--------------|   X3
A|-3---------------3----------------------|
E|----------------------------------------|
            
Hard to play? Try these video lessons and learn fast. | Correct




comments powered by Disqus
↑ Back to top | Tablatures and chords are parodies/interpretations of the original songs. You may use it for private study, scholarship, research or language learning purposes only