» » »

It Must Be Love Bass tabs (ver.1)

Artists:  A B C D E F G H I J K L M N O P Q R S T U V W X Y Z # 

It Must Be Love Bass tabs (ver.1)

Madness
Rating:
3/5 (8 votes)

Hard to play? Try these video lessons and learn fast.
                1st Verse:
|----------------|----------------|----------------|----------------|
|5-----5---------|5-----5---------|5-----5---------|5---------------|
|----------5-7-5-|----------5-7-5-|----------5-7-5-|----------------|
|----------------|----------------|----------------|----------------|
1 * 2 * 3 * 4 *  1 * 2 * 3 * 4 *  1 * 2 * 3 * 4 *  1 * 2 * 3 * 4 *

|----------------|----------------|----------------|-----------------|
|5-----5---------|5-----5---------|5-----5---------|-----------------|
|----------5-7-5-|----------5-7-5-|----------5-7-5-|3--3--3--3---5---|
|----------------|----------------|----------------|-----------------|
1 * 2 * 3 * 4 *  1 * 2 * 3 * 4 *  1 * 2 * 3 * 4 * (Triplet) 3 * 4 *

Pre-chorus:
|----------------|----------------|----------------|----------------|
|----------------|----------------|----------------|----------------|
|7-7-7-7-7-------|----------------|--5-5-5-5-------|----------------|
|----------------|--5-5-5-5-------|----------------|--0-0-0-0---3---|
1 * 2 * 3 * 4 *  1 * 2 * 3 * 4 *  1 * 2 * 3 * 4 *  1 * 2 * 3 * 4 *

|----------------|----------------|----------------|---------------4--|
|----------------|----------------|----------------|------4--5--7-----|
|----------------|----------------|----------------|5--7--------------|
|5-------5-------|3-------3-------|2-------2-------|------------------|
1 * 2 * 3 * 4 *  1 * 2 * 3 * 4 *  1 * 2 * 3 * 4 * (Triplet) (Triplet)

Chorus:
|----------------|----------------|----------------|
|----------------|----------------|----------------|
|----------------|2-2---2-3---3---|3-------3-5-----|
|3-3-3-3-3-------|----------------|----------------|(x2)
1 * 2 * 3 * 4 *  1 * 2 * 3 * 4 *  1 * 2 * 3 * 4 *

|----------------|----------------|----------------|
|----------------|----------------|----------------|
|3-------3-------|5-------5-------|7---------------|
|----------------|----------------|----------------|
1 * 2 * 3 * 4 *  1 * 2 * 3 * 4 *  1 * 2 * 3 * 4 *

2nd Verse:
|----------------|----------------|----------------|----------------|
|----------545---|----------------|---------52-----|---------52-----|
|--33------------|--33------------|-----------35---|-----------35---|
|55--5-----------|55--5----5557\--|33--33----------|33--33----------|
1 * 2 * 3 * 4 *  1 * 2 * 3 * 4 *  1 * 2 * 3 * 4 *  1 * 2 * 3 * 4 *

|----------------|----------------|----------------|----------------|
|----------545---|----------------|---------52-----|---------52-----|
|--33------------|--33------------|-----------35---|-----------35-5-|
|55--5-----------|55--5----5557\--|33--33----------|33--33----------|
1 * 2 * 3 * 4 *  1 * 2 * 3 * 4 *  1 * 2 * 3 * 4 *  1 * 2 * 3 * 4 *

Pre-chorus:
|----------------|----------------|----------------|----------------|
|----------------|----------------|----------------|----------------|
|7-7-7-7-7-------|----------------|--5-5-5-5-------|----------------|
|----------------|--5-5-5-5-------|----------------|--0-0-0-0---3---|
1 * 2 * 3 * 4 *  1 * 2 * 3 * 4 *  1 * 2 * 3 * 4 *  1 * 2 * 3 * 4 *

|----------------|----------------|----------------|---------------4--|
|----------------|----------------|----------------|------4--5--7-----|
|----------------|----------------|----------------|5--7--------------|
|5-------5-------|3-------3-------|2-------2-------|------------------|
1 * 2 * 3 * 4 *  1 * 2 * 3 * 4 *  1 * 2 * 3 * 4 * (Triplet) (Triplet)

Chorus:
|----------------|----------------|----------------|
|----------------|----------------|----------------|
|----------------|2-2---2-3---3---|3-------3-5-----|
|3-3-3-3-3-------|----------------|----------------|(x2)
1 * 2 * 3 * 4 *  1 * 2 * 3 * 4 *  1 * 2 * 3 * 4 *

|----------------|----------------|----------------|
|----------------|----------------|----------------|
|3-------3-------|5-------5-------|7---------------|
|----------------|----------------|----------------|
1 * 2 * 3 * 4 *  1 * 2 * 3 * 4 *  1 * 2 * 3 * 4 *

Interlude:
|----------------|----------------|----------------|----------------|
|----------------|----------------|----------------|----------------|
|--4-7-----------|7---------------|--4-7-----------|7---------------|
|5---------------|--8-5-----------|5---------------|--8-5-----------|
1 * 2 * 3 * 4 *  1 * 2 * 3 * 4 *  1 * 2 * 3 * 4 *  1 * 2 * 3 * 4 *

|----------------|----------------|----------------|----------------|
|----------------|5-2-------------|----------------|5-2-------------|
|--2-5-----------|----3-----------|--2-5-----------|----3--(3)-(5)--|
|3---------------|----------------|3---------------|----------------|(x2)
1 * 2 * 3 * 4 *  1 * 2 * 3 * 4 *  1 * 2 * 3 * 4 *  1 * 2 * 3 * 4 *

Pre-chorus:
|----------------|----------------|----------------|----------------|
|----------------|----------------|----------------|----------------|
|7-7-7-7-7-------|----------------|--5-5-5-5-------|----------------|
|----------------|--5-5-5-5-------|----------------|--0-0-0-0---3---|
1 * 2 * 3 * 4 *  1 * 2 * 3 * 4 *  1 * 2 * 3 * 4 *  1 * 2 * 3 * 4 *

|----------------|----------------|----------------|---------------4--|
|----------------|----------------|----------------|------4--5--7-----|
|----------------|----------------|----------------|5--7--------------|
|5-------5-------|3-------3-------|2-------2-------|------------------|
1 * 2 * 3 * 4 *  1 * 2 * 3 * 4 *  1 * 2 * 3 * 4 * (Triplet) (Triplet)

Chorus:
|----------------|----------------|----------------|
|----------------|----------------|----------------|
|----------------|2-2---2-3---3---|3-------3-5-----|
|3-3-3-3-3-------|----------------|----------------|(x2)
1 * 2 * 3 * 4 *  1 * 2 * 3 * 4 *  1 * 2 * 3 * 4 *

|----------------|----------------|----------------|
|----------------|----------------|----------------|
|3-------3-------|5-------5-------|7---------------|
|----------------|----------------|----------------|
1 * 2 * 3 * 4 *  1 * 2 * 3 * 4 *  1 * 2 * 3 * 4 *



|----------------|----------------|----------------|
|----------------|----------------|----------------|
|----------------|2-2---2-3---3---|3-------3-5-----|
|3-3-3-3-3-------|----------------|----------------|(fade out w/slight 
variation)
1 * 2 * 3 * 4 *  1 * 2 * 3 * 4 *  1 * 2 * 3 * 4 *
            
Hard to play? Try these video lessons and learn fast. | Correct




comments powered by Disqus
↑ Back to top | Tablatures and chords are parodies/interpretations of the original songs. You may use it for private study, scholarship, research or language learning purposes only