» » »

House Of Fun Tabs (ver.1)

Artists:  A B C D E F G H I J K L M N O P Q R S T U V W X Y Z # 

House Of Fun Tabs (ver.1)

Madness
Rating:
1/5 (2 votes)

Hard to play? Try these video lessons and learn fast.
                Tuning eBGDAD

-|-------------------------------------------------------------------|
-|-------------------------------------------------------------------|
-|-------------------------------------------------------------------|
-|44---------4444422-------------------------------------------------|
-|--555555555-------444444444444444455555555544444445555555555555555-|
-|-------------------------------------------------------------------|
 Verse

-|---------------------------------------------------------------------|
-|---------------------------------------------------------------------|
-|---------------------------------------------------------------------|
-|---------------------------------------------------------------------|
-|-0000000000000000-7777777777777777-5555555555555555-0000000000000000-|
-|-0000000000000000-7777777777777777-5555555555555555-0000000000000000-|


-----------------------------------------------------|----------------|
-----------------------------------------------------|----------------|
-----------------------------------------------------|----------------|
-----------------------------------------------------|----------------|
---7777777777777777-5555555555555555-0000000000000000|----------------|
---7777777777777777-5555555555555555-0000000000000000|----------------|
 Chorus

-|-2222222x-00000000x-0000000x---------|------------------------------|
-|-3333333x-22222222x-0000000x---------|------------------------------|
-|-2222222x-22222222x-0000000x---------|------------------------------|
-|-0000000x-22222222x55555555x00000000-|------------------------------|
-|-0000000x-00000000x55555555x00000000-|------------------------------|
-|-0000000x-00000000x55555555x00000000-|------------------------------|
Play verse again, then the chorus twice then this awesome as solo

-|--------------------------------------------------------------------|
-|---2h3p2------------------------------------------------------------|
-|---------2----------------------------------------------------------|
-|-----------2-4h5p4p0-----4p0----------------------------------------|
-|---------------------4-0-----5---4---5--4--5h7--5--4--5--5--4--5----|
-|--------------------------------------------------------------------|

----------------|----------------------------------------------------|
----------------|-2h3p0----------------------------------------------|
----------------|--------4--0----------------------------------------|
----------------|--------------4h5p0-------4-0-----------------------|
---4h5p4p0------|---------------------4--0-----5---4---5---4---------|
-----------0----|----------------------------------------------------|

---------------------------------------------------------------------|
---------------------------------------------------------------------|
---------------------------------------------------------------------|
------------------444444-5---5--5h7--5--4--5----4--5--5h7--5--4--5---|
--5555555577777777---------------------------------------------------|
---------------------------------------------------------------------|


---------------------------------------------------------------------|
---------------------------------------------------------------------|
---------------------------------------------------------------------|
-4--0--12---0-12-12h14---0--14--14h16--0--16--16h17--16--17----------|
---------------------------------------------------------------------|
---------------------------------------------------------------------|

-------------------------0----0-------0----0----0----0-|
-------------------------0----0-------0----0----0----0-|
-19----18----16----14----12---11------9----7----6----4-|
-------------------------------------------------------|
-------------------------------------------------------|
-------------------------------------------------------|
            
Hard to play? Try these video lessons and learn fast. | Correct




comments powered by Disqus
↑ Back to top | Tablatures and chords are parodies/interpretations of the original songs. You may use it for private study, scholarship, research or language learning purposes only