» » »

Bed And Breakfast Man Bass tabs (ver.1)

Artists:  A B C D E F G H I J K L M N O P Q R S T U V W X Y Z # 

Bed And Breakfast Man Bass tabs (ver.1)

Madness
Rating:
0/5 (0 votes)

Hard to play? Try these video lessons and learn fast.
                                         BED AND BREAKFAST MAN   - MADNESS

Verse
G ------0-6/s/10----------------------|
D ---1-1------- -3-1------------------|
A 1-1---------------          times 6-|
E ------------------------------------|

Chorus
G -------------------------------------|
D---0-11110000-------------------------|
A111----------3-1-            times  2-|
E--------------------------------------|

Verse
G ------0-6/s/10----------------------|
D ---1-1------- -3-1------------------|
A 1-1---------------          times 4-|
E ------------------------------------|


Chorus
G -------------------------------------|
D---0-11110000-------------------------|
A111----------3-1-            times  2-|
E--------------------------------------|


not sure of "I've heard he's changed alot since then" bit

Verse
G ------0-6/s/10----------------------|
D ---1-1------- -3-1------------------|
A 1-1---------------          times 4-|
E ------------------------------------|


Chorus
G -------------------------------------|
D---0-11110000-------------------------|
A111----------3-1-            times  2-|
E--------------------------------------|


Verse
G ------0-6/s/10----------------------|
D ---1-1------- -3-1------------------|
A 1-1---------------          times 4-|
E ------------------------------------|


Chorus
G -------------------------------------|
D---0-11110000-------------------------|
A111----------3-1-            times  6-|
E--------------------------------------|

TO FADE

END

Hope you like it!
            
Hard to play? Try these video lessons and learn fast. | Correct




comments powered by Disqus
↑ Back to top | Tablatures and chords are parodies/interpretations of the original songs. You may use it for private study, scholarship, research or language learning purposes only