>
 >
True Love

True Love Guitar Tabs

Madina Lake - True Love chords, tabs, tablatures, lyrics

Guitar lessons | Add/correct | Request | Top 50 tabs Artists:  A B C D E F G H I J K L M N O P Q R S T U V W X Y Z 0-9

True Love Guitar Tabs – Madina Lake

CD, Sheet music, Poster

Do you like True Love? Share with your friends now
Bass TabsChordsTabsUkulele

Tuning:DADGBe




Okay this is my first tab so don't kill me if it sucks xD



Guitar One
e|---------------------------------------------------------------------------|
B|---------------------------------------------------------------------------|
G|---------------------------------------------------------------------------|
D|---------------------------------------------------------------------------|
A|x77-x55-x77-x55-x7777-x7-x77-x55-x77-x5-x7---------------------------------|
D|---------------------------------------------------------------------------|

Guitar 2 [00:23]
e|---0-----------------------------------------------------------------------|
B|-0---1-0-------------------------------------------------------------------|
G|---------------------------------------------------------------------------|
D|---------------------------------------------------------------------------|
A|---------------------------------------------------------------------------|
D|---------------------------------------------------------------------------|


Pre Chorus [00:37]
e|---------------------------------------------------------------------------|
B|---------------------------------------------------------------------------|
G|---------------------------------------------------------------------------|
D|-22-00-22-00-22222-22-00-22-0-2----xxxxxx----------------------------------|
A|-22-00-22-00-22222-22-00-22-0-2----xxxxxx----------------------------------|
D|-22-00-22-00-22222-22-00-22-0-2----xxxxxx----------------------------------|


Chorus[00:53]
e|-----------------------------------------0---------------------------------|
B|---------------------------------------0---1-0-----------------------------|
G|---555555-------------4-5-----------------------x-aprox.5------------------|
D|---555555--2222--5--0-4-5--------------------------------------------------|
A|---333333--2222--5--0-2-3----x2--------------------------------------------|
D|-----------2222--5--0------------------------------------------------------|

Verse 2 [Comes in at 01:28]
e|---------------------------------------------------------------------------|
B|---------------------------------------------------------------------------|
G|---------------------------------------------------------------------------|
D|---------------------------------------------------------------------------|
A|--x77-x55-x77-x55-x7777-x7-x77-x55-x77-x5-x7-------------------------------|
D|---------------------------------------------------------------------------|

Pre Chorus [01:44]
e|---------------------------------------------------------------------------|
B|---------------------------------------------------------------------------|
G|---------------------------------------------------------------------------|
D|-22-00-22-00-22222-22-00-22-0-2----xxxxxx----------------------------------|
A|-22-00-22-00-22222-22-00-22-0-2----xxxxxx----------------------------------|
D|-22-00-22-00-22222-22-00-22-0-2----xxxxxx----------------------------------|


Chorus[01:59]
e|-----------------------------------------0---------------------------------|
B|---------------------------------------0---1-0-----------------------------|
G|---555555-------------4-5-----------------------x-aprox.5------------------|
D|---555555--2222--5--0-4-5--------------------------------------------------|
A|---333333--2222--5--0-2-3----x2--------------------------------------------|
D|-----------2222--5--0------------------------------------------------------|


Break-Down [02:21]
e|---------------------------------------------------------------------------|
B|---------------------------------------------------------------------------|
G|---------------------------------------------------------------------------|
D|-22-00-22-00-22222-22-00-22-0-2----xxxxxx-----2222-------------------------|
A|-22-00-22-00-22222-22-00-22-0-2----xxxxxx--x4-2222-------------------------|
D|-22-00-22-00-22222-22-00-22-0-2----xxxxxx-----2222-------------------------|

Chorus[02:56]
e|---------------------------------------------------------------------------|
B|---------------------------------------------------------------------------|
G|---555555-------------4-5--------------------------------------------------|
D|---555555--2222--5--0-4-5--------------------------------------------------|
A|---333333--2222--5--0-2-3----x4--------------------------------------------|
D|-----------2222--5--0------------------------------------------------------|


Outro [00:37]
e|---------------------------------------------------------------------------|
B|---------------------------------------------------------------------------|
G|---------------------------------------------------------------------------|
D|-22-00-22-00-22222-22-00-22-0-2----xxxxxx----------------------------------|
A|-22-00-22-00-22222-22-00-22-0-2----xxxxxx---x3-----------------------------|
D|-22-00-22-00-22222-22-00-22-0-2----xxxxxx----------------------------------|



| /  slide up
| \  slide down
| h  hammer-on
| p  pull-off
| ~  vibrato
| +  harmonic
| x  Mute note





Comments


Popular Madina Lake tabs & chords
Pandora 2 Bass Tabs
Pandora 3 Bass Tabs
Stars Bass Tabs
Here I Stand Chords
Through The Pain Chords
Here I Stand Drum Tabs
Here I Stand 1 Tabs
House Of Cards 2 Tabs
Adalia Ukulele
Never Take Us Alive Ukulele


Song lyrics



↑ Back to top | Tablatures and chords are parodies/interpretations of the original songs. You may use it for private study, scholarship, research or language learning purposes only
© 2014 AZChords.com Contact us | Privacy policy | DMCA | Add/correct tabs | Request tabs | Top 50 tabs