>
 >
Stars

Stars Guitar Tabs

Madina Lake - Stars chords, tabs, tablatures, lyrics

Guitar lessons | Add/correct | Request | Top 50 tabs Artists:  A B C D E F G H I J K L M N O P Q R S T U V W X Y Z 0-9

Stars Guitar Tabs – Madina Lake

CD, Sheet music, Poster

Do you like Stars? Share with your friends now
Bass TabsBass Tabs v2ChordsTabsUkulele


So I haven't tabbed anything in like forever.. I've only tabbed one song 
to this site and I got good feedback so y'know..

I'd like to hear from you - with feedback, death threats and whatever 
else.

I love ML's album - and this song is incredibly easy to work out. 
I worked out Adalia from the same album, too - which I shall tab 
when I get the time, i guess... Good luck!
Tuning: Drop D (D A D G B e - Low to High)

Intro: Clean. Let all the notes ring as much as possible.
e|--------------------------------------------------------------|
B|--------------------------------------------------------------|
G|-----0-----0--------0-----0--------0-----0--------0-----------|
D|---5-----5--------5-----5--------5-----5--------5-----5-------|
A|--------------------------------------------------------------|
D|-5-----5------0-7-----7------0-2-----2------2-4-----4---2-2-4-|

e|--------------------------------------------------------------|
B|--------------------------------------------------------------|
G|-----0-----0--------0-----0--------0-----0--------0-----------|
D|---5-----5--------5-----5--------5-----5--------5-----5-------|
A|--------------------------------------------------------------|
D|-5-----5------0-7-----7------0-2-----2------2-4-----4---2-2-4-|

Verse 1: First part is exactly the same as the intro. Let all notes
ring.

e|--------------------------------------------------------------|
B|--------------------------------------------------------------|
G|-----0-----0--------0-----0--------0-----0--------0-----------|
D|---5-----5--------5-----5--------5-----5--------5-----5-------|
A|--------------------------------------------------------------|
D|-5-----5------0-7-----7------0-2-----2------2-4-----4---2-2-4-|
"We walked past a dead-end street..."

e|--------------------------------------------------------------|
B|--------------------------------------------------------------|
G|-----0-----0--------0-----0--------0-----0--------0-----------|
D|---5-----5--------5-----5--------5-----5--------5-----5-------|
A|--------------------------------------------------------------|
D|-5-----5------0-7-----7------0-2-----2------2-4-----4---2-2-4-|
"Atop the hill so we can be alone..."

e|----0-----0---------0-----0---------0-----0---------0----------|
B|--0-----0-----0---0-----0-----0---0-----0-----0---0-----0------|
G|4-----4-----4---5-----5-----5---4-----4-----4---3-----3---3-3-1|
D|---------------------------------------------------------------|
A|---------------------------------------------------------------|
D|---------------------------------------------------------------|
"Under the moon, it's beautiful..."

e|----0-----0---------0-----0---------0-----0---------0----------|
B|--0-----0-----0---0-----0-----0---0-----0-----0---0-----0------|
G|4-----4-----4---5-----5-----5---4-----4-----4---3-----3---3-3-1|
D|---------------------------------------------------------------|
A|---------------------------------------------------------------|
D|---------------------------------------------------------------|
"The stars clear the black of night when Iím with you..."


e|----0-----0---------0-----0---------0-----0---------0----------|
B|--0-----0-----0---0-----0-----0---0-----0-----0---0-----0------|
G|4-----4-----4---5-----5-----5---4-----4-----4---3-----3---3-3-1|
D|---------------------------------------------------------------|
A|---------------------------------------------------------------|
D|---------------------------------------------------------------|
"And nervously I take your hands..."


e|----0-----0---------0-----0---------0-----0---------0----------|
B|--0-----0-----0---0-----0-----0---0-----0-----0---0-----0------|
G|4-----4-----4---5-----5-----5---4-----4-----4---3-----3---3-3-1|
D|---------------------------------------------------------------|
A|---------------------------------------------------------------|
D|---------------------------------------------------------------|
"And promise you I'll take you for a ride..."

Pre-Chorus: This is the only thing I'm not so sure about.. Tell me 
what you think... I think Mateo only plays the notes on the 
high e string, and the other notes i've put down are actually 
played on the piano in the background.
e|3---3---3---3---3---3---3---3---5---5---5---5---5---5---5---5---|
B|--5---5---5---5---5---5---5---5---7---7---7---7---7---7---7---7-|
G|----------------------------------------------------------------|
D|----------------------------------------------------------------|
A|----------------------------------------------------------------|
D|----------------------------------------------------------------|
"And someday, we'll have it all. You and me we're gonna be..."

e|7---7---7---7---7---7---7---7---6---6---6---6---6---6---6---6---|
B|--8---8---8---8---8---8---8---8---8---8---7---7---8---8---7-7---|
G|----------------------------------------------------------------|
D|----------------------------------------------------------------|
A|----------------------------------------------------------------|
D|----------------------------------------------------------------|
"Stars..."

Chorus: Distortion. I suck at tabbing strumming patterns, sorry...
I just used the drums to get it though..
e|-------------------------------------|
B|-13-13-13--13--13-13--13--13-13-13\--|
G|-12-12-12--12--12-12--12--12-12-12\--|
D|-10-10-10--10--10-10--10--10-10-10\--|
A|-10-10-10--10--10-10--10--10-10-10\--|
D|-10-10-10--10--10-10--10--10-10-10\--|
"We'll run away from everything you hate..."

e|--------------------------------------------------------------|
B|-3-3-3--3--3-3--3--3-3-3--5-5-5--5--5-5--5--5-5-5-------------|
G|-2-2-2--2--2-2--2--2-2-2--4-4-4--4--4-4--4--4-4-4-------------|
D|-0-0-0--0--0-0--0--0-0-0--2-2-2--2--2-2--2--2-2-2-------------|
A|-0-0-0--0--0-0--0--0-0-0--2-2-2--2--2-2--2--2-2-2-------------|
D|-0-0-0--0--0-0--0--0-0-0--2-2-2--2--2-2--2--2-2-2-------------|
"Run away to everything you've wanted. Take my hand, let's get..."

e|--------------------------------------------------------------|
B|-7-7-7--7--7-7--7--7-7-7--------------------------------------|
G|-6-6-6--6--6-6--6--6-6-6--------------------------------------|
D|-4-4-4--4--4-4--4--4-4-4--------------------------------------|
A|-4-4-4--4--4-4--4--4-4-4--------------------------------------|
D|-4-4-4--4--4-4--4--4-4-4--------------------------------------|
"Famous..."

e|-------------------------------------|
B|-13-13-13--13--13-13--13--13-13-13\--|
G|-12-12-12--12--12-12--12--12-12-12\--|
D|-10-10-10--10--10-10--10--10-10-10\--|
A|-10-10-10--10--10-10--10--10-10-10\--|
D|-10-10-10--10--10-10--10--10-10-10\--|
"We'll run away from everything you fought..."

e|--------------------------------------------------------------|
B|-3-3-3--3--3-3--3--3-3-3--5-5-5--5--5-5--5--5-5-5-------------|
G|-2-2-2--2--2-2--2--2-2-2--4-4-4--4--4-4--4--4-4-4-------------|
D|-0-0-0--0--0-0--0--0-0-0--2-2-2--2--2-2--2--2-2-2-------------|
A|-0-0-0--0--0-0--0--0-0-0--2-2-2--2--2-2--2--2-2-2-------------|
D|-0-0-0--0--0-0--0--0-0-0--2-2-2--2--2-2--2--2-2-2-------------|
"Run away to everything you love. Take my hand, let's get..."

e|---------------------------|
B|---------------------------|
G|---------------------------|
D|-2-2-2--2--2-2--2--2-2-2---|
A|-2-2-2--2--2-2--2--2-2-2---|
D|-2-2-2--2--2-2--2--2-2-2---|
"Famous..."

Verse 2: Same as 2nd part of verse one - clean.. There's a 2nd guitar 
Palm Muting some stuff, but I see no need to tab it because the 
bass pretty much covers that.
e|----0-----0---------0-----0---------0-----0---------0----------|
B|--0-----0-----0---0-----0-----0---0-----0-----0---0-----0------|
G|4-----4-----4---5-----5-----5---4-----4-----4---3-----3---3-3-1|
D|---------------------------------------------------------------|
A|---------------------------------------------------------------|
D|---------------------------------------------------------------|
"I'm amazed how things can change..."

e|----0-----0---------0-----0---------0-----0---------0----------|
B|--0-----0-----0---0-----0-----0---0-----0-----0---0-----0------|
G|4-----4-----4---5-----5-----5---4-----4-----4---3-----3---3-3-1|
D|---------------------------------------------------------------|
A|---------------------------------------------------------------|
D|---------------------------------------------------------------|
"How the real world can chase our dreams away..."

Heavy compression and distortion here.
e|----------------------------------------------------------------|
B|----------------------------------------------------------------|
G|----------------------------------------------------------------|
D|-5-5-5-5-5-5-5-5-7-7-7-7-7-7-7-7-2-2-2-2-2-2-2-2-4-4-4-4-4-2-2-4|
A|-x-x-x-x-x-x-x-x-x-x-x-x-x-x-x-x-x-x-x-x-x-x-x-x-x-x-x-x-x-2-2-4|
D|-5-5-5-5-5-5-5-5-7-7-7-7-7-7-7-7-2-2-2-2-2-2-2-2-4-4-4-4-4-2-2-4|
"But how did you give up so easily..."

e|----------------------------------------------------------------|
B|----------------------------------------------------------------|
G|----------------------------------------------------------------|
D|-5-5-5-5-5-5-5-5-7-7-7-7-7-7-7-7-2-2-2-2-2-2-2-2-4-4-4-4-4-2-2-4|
A|-x-x-x-x-x-x-x-x-x-x-x-x-x-x-x-x-x-x-x-2-2-2-2-2-4-4-4-4-4-2-2-4|
D|-5-5-5-5-5-5-5-5-7-7-7-7-7-7-7-7-2-2-2-2-2-2-2-2-4-4-4-4-4-2-2-4|
"'Cause I'd rather make them bury me..."

Chorus: Distortion. I suck at tabbing strumming patterns, sorry...
I just used the drums to get it though..
e|-------------------------------------|
B|-13-13-13--13--13-13--13--13-13-13\--|
G|-12-12-12--12--12-12--12--12-12-12\--|
D|-10-10-10--10--10-10--10--10-10-10\--|
A|-10-10-10--10--10-10--10--10-10-10\--|
D|-10-10-10--10--10-10--10--10-10-10\--|
"We'll run away from everything you hate..."

e|--------------------------------------------------------------|
B|-3-3-3--3--3-3--3--3-3-3--5-5-5--5--5-5--5--5-5-5-------------|
G|-2-2-2--2--2-2--2--2-2-2--4-4-4--4--4-4--4--4-4-4-------------|
D|-0-0-0--0--0-0--0--0-0-0--2-2-2--2--2-2--2--2-2-2-------------|
A|-0-0-0--0--0-0--0--0-0-0--2-2-2--2--2-2--2--2-2-2-------------|
D|-0-0-0--0--0-0--0--0-0-0--2-2-2--2--2-2--2--2-2-2-------------|
"Run away to everything you've wanted. Take my hand, let's get..."

e|--------------------------------------------------------------|
B|-7-7-7--7--7-7--7--7-7-7--------------------------------------|
G|-6-6-6--6--6-6--6--6-6-6--------------------------------------|
D|-4-4-4--4--4-4--4--4-4-4--------------------------------------|
A|-4-4-4--4--4-4--4--4-4-4--------------------------------------|
D|-4-4-4--4--4-4--4--4-4-4--------------------------------------|
"Famous..."

e|-------------------------------------|
B|-13-13-13--13--13-13--13--13-13-13\--|
G|-12-12-12--12--12-12--12--12-12-12\--|
D|-10-10-10--10--10-10--10--10-10-10\--|
A|-10-10-10--10--10-10--10--10-10-10\--|
D|-10-10-10--10--10-10--10--10-10-10\--|
"We'll run away from everything you fought..."

e|--------------------------------------------------------------|
B|-3-3-3--3--3-3--3--3-3-3--5-5-5--5--5-5--5--5-5-5-------------|
G|-2-2-2--2--2-2--2--2-2-2--4-4-4--4--4-4--4--4-4-4-------------|
D|-0-0-0--0--0-0--0--0-0-0--2-2-2--2--2-2--2--2-2-2-------------|
A|-0-0-0--0--0-0--0--0-0-0--2-2-2--2--2-2--2--2-2-2-------------|
D|-0-0-0--0--0-0--0--0-0-0--2-2-2--2--2-2--2--2-2-2-------------|
"Run away to everything you love. Take my hand, let's get..."

e|---------------------------|
B|---------------------------|
G|---------------------------|
D|-2-2-2--2--2-2--2--2-2-2---|
A|-2-2-2--2--2-2--2--2-2-2---|
D|-2-2-2--2--2-2--2--2-2-2---|
"Famous..."

Break: Clean again... Maybe some weird swell effect going on..
e|-----0-----0-----0-----0-----0---|
B|---0-----0-----0-----0-----0-----|
G|-4-----4-----4-----4-----4-----4-|
D|---------------------------------|
A|---------------------------------|
D|---------------------------------|

e|-----0-----0-----0-----0-----0---|
B|---0-----0-----0-----0-----0-----|
G|\3-----3-----3-----3-----3-----3-|
D|---------------------------------|
A|---------------------------------|
D|---------------------------------|

e|-----0-----0-----0-----0-----0---|
B|---0-----0-----0-----0-----0-----|
G|/4-----4-----4-----4-----4-----4-|
D|---------------------------------|
A|---------------------------------|
D|---------------------------------|

e|-----0-----0-----0-----0-----0---|
B|---0-----0-----0-----0-----0-----|
G|\3-----3-----3-----3-----3-----3-|
D|---------------------------------|
A|---------------------------------|
D|---------------------------------|

Bridge: Still clean..
e|-----0-----0-----0-----0-----0-------0-----0-----------0-----0-----|
B|---0-----0-----0-----0-----0-------0-----0-----0-----0-----0-------|
G|-4-----4-----4-----4-----4-----4-3-----3-----3----/7-----7-----7---|
D|-------------------------------------------------------------------|
A|-------------------------------------------------------------------|
D|-------------------------------------------------------------------|
"Our names in lights across the sky, it's beautiful..."

e|-----0-----0-----0-----0-----0-------0-----0-----------0-----0-----|
B|---0-----0-----0-----0-----0-------0-----0-----0-----0-----0-------|
G|-4-----4-----4-----4-----4-----4-3-----3-----3----/7-----7-----7---|
D|-------------------------------------------------------------------|
A|-------------------------------------------------------------------|
D|-------------------------------------------------------------------|
"And our whole lives will be headlines, across the whole world-"

Some distortion with compression sounds good.
e|-----------------------------------------------------------------|
B|-----------------------------------------------------------------|
G|-----------------------------------------------------------------|
D|-2-2-2-2-2-2-2-2-2-2-2-2-2-2-2-2-1-1-1-1-1-1-1-/-5-5-5-5-5-5-5-5-|
A|-x-x-x-x-x-x-x-x-x-x-x-x-x-x-x-x-x-x-x-x-x-x-x-/-5-5-5-5-5-5-5-5-|
D|-2-2-2-2-2-2-2-2-2-2-2-2-2-2-2-2-1-1-1-1-1-1-1-/-5-5-5-5-5-5-5-5-|
"I can't let you live, you're just a ghost, and I'm feeling sick inside 
my head..."

e|-----------------------------------------------------------------|
B|-----------------------------------------------------------------|
G|-----------------------------------------------------------------|
D|-2-2-2-2-2-2-2-2-2-2-2-2-2-2-2-2-1-1-1-1-1-1-1-/-5-5-5-5-5-5-5-5-|
A|-x-x-x-x-x-x-x-x-x-x-x-x-x-x-x-x-x-x-x-x-x-x-x-/-5-5-5-5-5-5-5-5-|
D|-2-2-2-2-2-2-2-2-2-2-2-2-2-2-2-2-1-1-1-1-1-1-1-/-5-5-5-5-5-5-5-5-|
"You won't feel a thing, I cover up your eyes as I bury you I know I..."

e|-----------------------------------------------------------------|
B|-----------------------------------------------------------------|
G|-----------------------------------------------------------------|
D|-7-7-7-7-7-7-7-7-7-7-7-7-7-7-7-7-9-9-9-9-9-9-9-9-9-9-9-9-9-9-9-9-|
A|-7-7-7-7-7-7-7-7-7-7-7-7-7-7-7-7-9-9-9-9-9-9-9-9-9-9-9-9-9-9-9-9-|
D|-7-7-7-7-7-7-7-7-7-7-7-7-7-7-7-7-9-9-9-9-9-9-9-9-9-9-9-9-9-9-9-9-|
"Bury this, under drowning eyes. And I'll..."

e|-----------------------------------------------------------------|
B|-----------------------------------------------------------------|
G|-----------------------------------------------------------------|
D|-7-7-7-7-7-7-7-7-7-7-7-7-7-7-7-7-9-9-9-9-9-9-9-9-9-9-9-9-9-9-9\\\|
A|-7-7-7-7-7-7-7-7-7-7-7-7-7-7-7-7-9-9-9-9-9-9-9-9-9-9-9-9-9-9-9\\\|
D|-7-7-7-7-7-7-7-7-7-7-7-7-7-7-7-7-9-9-9-9-9-9-9-9-9-9-9-9-9-9-9\\\|
"Carry it, 'till the day I die..."

Chorus: 
e|-------------------------------------|
B|/13-13-13--13--13-13--13--13-13-13\--|
G|/12-12-12--12--12-12--12--12-12-12\--|
D|/10-10-10--10--10-10--10--10-10-10\--|
A|/10-10-10--10--10-10--10--10-10-10\--|
D|/10-10-10--10--10-10--10--10-10-10\--|
"We'll run away from everything you hate..."

e|--------------------------------------------------------------|
B|-3-3-3--3--3-3--3--3-3-3--5-5-5--5--5-5--5--5-5-5-------------|
G|-2-2-2--2--2-2--2--2-2-2--4-4-4--4--4-4--4--4-4-4-------------|
D|-0-0-0--0--0-0--0--0-0-0--2-2-2--2--2-2--2--2-2-2-------------|
A|-0-0-0--0--0-0--0--0-0-0--2-2-2--2--2-2--2--2-2-2-------------|
D|-0-0-0--0--0-0--0--0-0-0--2-2-2--2--2-2--2--2-2-2-------------|
"Run away to everything you've wanted. Take my hand, let's get..."

e|--------------------------------------------------------------|
B|-7-7-7--7--7-7--7--7-7-7--------------------------------------|
G|-6-6-6--6--6-6--6--6-6-6--------------------------------------|
D|-4-4-4--4--4-4--4--4-4-4--------------------------------------|
A|-4-4-4--4--4-4--4--4-4-4--------------------------------------|
D|-4-4-4--4--4-4--4--4-4-4--------------------------------------|
"Famous..."

e|-------------------------------------|
B|/13-13-13--13--13-13--13--13-13-13\--|
G|/12-12-12--12--12-12--12--12-12-12\--|
D|/10-10-10--10--10-10--10--10-10-10\--|
A|/10-10-10--10--10-10--10--10-10-10\--|
D|/10-10-10--10--10-10--10--10-10-10\--|
"We'll run away from everything you fought..."

e|--------------------------------------------------------------|
B|-3-3-3--3--3-3--3--3-3-3--5-5-5--5--5-5--5--5-5-5-------------|
G|-2-2-2--2--2-2--2--2-2-2--4-4-4--4--4-4--4--4-4-4-------------|
D|-0-0-0--0--0-0--0--0-0-0--2-2-2--2--2-2--2--2-2-2-------------|
A|-0-0-0--0--0-0--0--0-0-0--2-2-2--2--2-2--2--2-2-2-------------|
D|-0-0-0--0--0-0--0--0-0-0--2-2-2--2--2-2--2--2-2-2-------------|
"Run away to everything you've loved. Take my hand, let's get..."

e|---------------------------|
B|---------------------------|
G|---------------------------|
D|-2-2-2--2--2-2--2--2-2-2---|
A|-2-2-2--2--2-2--2--2-2-2---|
D|-2-2-2--2--2-2--2--2-2-2---|
"Famous..."

Outro: Either use deadnotes or Palm Mute where the x's are. Heavy 
distortion.
e|-----------------------------------------|
B|-----------------------------------------|
G|-----------------------------------------|
D|-2-x-x-2-x-x-2-2-x-x-2-x-x-2-2-x-x-2-x-x-|
A|-2-x-x-2-x-x-2-2-x-x-2-x-x-2-2-x-x-2-x-x-|
D|-2-x-x-2-x-x-2-2-x-x-2-x-x-2-2-x-x-2-x-x-|

e|-----------------------------------------|
B|-----------------------------------------|
G|-----------------------------------------|
D|-2-x-x-2-x-x-2-2-x-x-2-x-x-2-2-x-x-2-x-x-|
A|-2-x-x-2-x-x-2-2-x-x-2-x-x-2-2-x-x-2-x-x-|
D|-2-x-x-2-x-x-2-2-x-x-2-x-x-2-2-x-x-2-x-x-|

e|-----------------------------------------|
B|-----------------------------------------|
G|-----------------------------------------|
D|-2-x-x-2-x-x-2-2-x-x-2-x-x-2-2-x-x-2-x-x-|
A|-2-x-x-2-x-x-2-2-x-x-2-x-x-2-2-x-x-2-x-x-|
D|-2-x-x-2-x-x-2-2-x-x-2-x-x-2-2-x-x-2-x-x-|

e|-----------------------------------------|
B|-----------------------------------------|
G|-----------------------------------------|
D|-2-x-x-2-x-x-2-2-x-x-2-x-x-2-2-x-x-2-x-x-|
A|-2-x-x-2-x-x-2-2-x-x-2-x-x-2-2-x-x-2-x-x-|
D|-2-x-x-2-x-x-2-2-x-x-2-x-x-2-2-x-x-2-x-x-|

e|-----------------------------|
B|-----------------------------|
G|-----------------------------|
D|-2-----2-----2-2-----2-----2-|
A|-2-----2-----2-2-----2-----2-|
D|-2-----2-----2-2-----2-----2-|

Finish.

Or use the comments. Whichever. Remember, I want you update 
this with anything I got wrong (particularly the first Pre-Chorus) 
so yeah please help and I'll give credit where it's due.





Comments


Popular Madina Lake tabs & chords
Stars 2 Bass Tabs
True Love Bass Tabs
Morning Sadness Chords
Now Or Never Chords
Pandora 2 Chords
Legends Tabs
Pecadillos Tabs
Angel Ukulele
Hey Superstar Ukulele
Welcome To Oblivion Ukulele


Song lyrics



↑ Back to top | Tablatures and chords are parodies/interpretations of the original songs. You may use it for private study, scholarship, research or language learning purposes only
© 2014 AZChords.com Contact us | Privacy policy | DMCA | Add/correct tabs | Request tabs | Top 50 tabs