» » »

Silent Voices Kill Bass tabs (ver.1)

Artists:  A B C D E F G H I J K L M N O P Q R S T U V W X Y Z # 

Silent Voices Kill Bass tabs (ver.1)

Madina Lake
Rating:
0/5 (0 votes)

Hard to play? Try these video lessons and learn fast.
                





Tuning: Drop C.





Intro [00:12]

F|----------------------------------------------|
C|-----4-5-4-4----------------------------------|
G|--------------3--5-6-5-5--35555555--35555555--|     [x2]
C|--0-------------------------------------------|



Verse [00:23]

F|-----------|
C|-----------|
G|-----------|     [x4]
C|--0~--0-0--|

F|--------------------------------------------|
C|--------------------------------------------|
G|-------------------------------------0------|
C|---3(x11)-/12-15-14-14-12---2(x12)-2---0-2--|



Pre-chorus [00:45]

F|-----------------------------------------------------------|
C|-----------------------------------------------------------|
G|---------3(x8)----------3~-2-------------3(x8)-------------|
C|--0(x8)---------5(x12)-------5----0(x8)---------5(x8)--5\--|



Chorus [00:56]

F|--------------------------------------------------|
C|-------4-5-4-4------------------------------------|
G|----------------333--5-6-5-5--35555555--35555555--|     [x2]
C|--000---------------------------------------------|

F|------------------------------------------------|
C|------------------------------------------------|
G|---------3(x8)-------------------3(x8)----------|
C|--0(x8)---------5(x16)----0(x8)---------5(x16)--|




Verse [01:19]

F|--------------------------------------------|
C|--------------------------------------------|
G|-------------------------------------0------|     [x2]
C|---3(x11)-/12-15-14-14-12---2(x12)-2---0-2--|



Pre-chorus [01:30]

F|-----------------------------------------------------------|
C|-----------------------------------------------------------|
G|---------3(x8)----------3~-2-------------3(x8)-------------|
C|--0(x8)---------5(x12)-------5----0(x8)---------5(x8)--5\--|



Chorus [01:41]

F|--------------------------------------------------|
C|-------4-5-4-4------------------------------------|
G|----------------333--5-6-5-5--35555555--35555555--|     [x2]
C|--000---------------------------------------------|

F|------------------------------------------------|
C|------------------------------------------------|
G|---------3(x8)-------------------3(x8)----------|
C|--0(x8)---------5(x16)----0(x8)---------5(x16)--|



Bridge [02:03]

F|--------------------------------------------|
C|--------------------------------------------|
G|--1(x8)--5(x8)----------1(x16)--5(x16)--5\--|
C|----------------3(x16)----------------------|



Chorus [02:20]

F|--------------------------------------------------|
C|-------4-5-4-4------------------------------------|
G|----------------333--5-6-5-5--35555555--35555555--|     [x2]
C|--000---------------------------------------------|

F|------------------------------------------------------------|
C|------------------------------------------------------------|
G|---------3(x8)-------------------3(x8)----------------------|
C|--0(x8)---------5(x16)----0(x8)---------5(x8)--/17(x8)--0~--|





| /  slide up
| \  slide down
| h  hammer-on
| p  pull-off
| ~  vibrato
| +  harmonic
| x  Mute note
            
Hard to play? Try these video lessons and learn fast. | Correct




comments powered by Disqus
↑ Back to top | Tablatures and chords are parodies/interpretations of the original songs. You may use it for private study, scholarship, research or language learning purposes only