» » »

Pandora Bass tabs (ver.3)

Artists:  A B C D E F G H I J K L M N O P Q R S T U V W X Y Z # 

Pandora Bass tabs (ver.3)

Madina Lake
Rating:
0/5 (0 votes)

Tabs too difficult? Try these video lessons and learn fast.
                -------------------------------------------------------------------------------
			     PANDORA - Madina Lake
-------------------------------------------------------------------------------


Tuning: Standard

Verse
G|-----------------|---------------|---------------|----------------|
D|-----------------|---------------|---------------|----------------|
A|-----------------|---------------|---------------|----------------|
E|-0-0-0-0-0-0-0-0-|-3-3-3-3-3--3--|-0-2-2-0-2--4--|-0-2-2-0-2--4-0-|  x3

G|-----------------|---------------|---------------|----------------|
D|-----------------|---------------|---------------|----------------|
A|-----------------|---------------|---------------|----------------|
E|-0-0-0-0-0-0-0-0-|-3-3-3-3-3--3--|-0-2-2-0-2--2--|-0-2------------|

Chorus
G|-----------------|-----------------|-----------------|-----------------|
D|-----------------|-----------------|-----------------|-----------------|
A|-----------------|-----------------|-----------------|-----------------|
E|-5-5-5-5-5-5-5-5-|-7-7-7-7-7-7-7-7-|-9-9-9-9-9-9-9-9-|-4-4-4-4-4-4-3-4-|  x3

G|-----------------|-----------------|-----------------|-----------------|
D|-----------------|-----------------|-----------------|-----------------|
A|-----------------|-----------------|-----------------|-----------------|
E|-5-5-5-5-5-5-5-5-|-7-7-7-7-7-7-7-7-|-9-9-9-9-9-9-9-9-|-9---------------|



Verse2
G|-----------------|---------------|---------------|----------------|
D|-----------------|---------------|---------------|----------------|
A|-----------------|---------------|---------------|----------------|
E|-0-0-0-0-0-0-0-0-|-3-3-3-3-3--3--|-0-2-2-0-2--4--|-0-2-2-0-2--4-0-|  x3

G|-----------------|---------------|---------------|----------------|
D|-----------------|---------------|---------------|----------------|
A|-----------------|---------------|---------------|----------------|
E|-0-0-0-0-0-0-0-0-|-3-3-3-3-3--3--|-0-2-2-0-2--2--|-0-2------------|

Chorus2
G|-----------------|-----------------|-----------------|-----------------|
D|-----------------|-----------------|-----------------|-----------------|
A|-----------------|-----------------|-----------------|-----------------|
E|-5-5-5-5-5-5-5-5-|-7-7-7-7-7-7-7-7-|-9-9-9-9-9-9-9-9-|-4-4-4-4-4-4-3-4-|  x3

G|-----------------|-----------------|-----------------|-----------------|
D|-----------------|-----------------|-----------------|-----------------|
A|-----------------|-----------------|-----------------|-----------------|
E|-5-5-5-5-5-5-5-5-|-7-7-7-7-7-7-7-7-|-9-9-9-9-9-9-9-9-|-9---------------|



Breakdown 
G|---------------------------------------------------------------|
D|---------------------------------------------------------------|
A|---------------------------------------------------------------|
E|-000000000000000033333333333333332222222233333333--------------|  x2


G|-----------------|-----------------|-----------------|-----------------|
D|-----------------|-----------------|-----------------|-----------------|
A|-----------------|-----------------|-----------------|-----------------|
E|-0-0-0-0-0-0-0-0-|-3-3-3-3-3-3-3-3-|-2-2-2-2-2-2-2-2-|-2-2-2-2-3-3-3-3-| x2



End Chorus
G|-----------------|-----------------|-----------------|-----------------|
D|-----------------|-----------------|-----------------|-----------------|
A|-----------------|-----------------|-----------------|-----------------|
E|-5-5-5-5-5-5-5-5-|-7-7-7-7-7-7-7-7-|-9-9-9-9-9-9-9-9-|-4-4-4-4-4-4-3-4-|  x4

G|-----------------|-----------------|-----------------|-----------------|
D|-----------------|-----------------|-----------------|-----------------|
A|-----------------|-----------------|-----------------|-----------------|
E|-5-5-5-5-5-5-5-5-|-7-7-7-7-7-7-7-7-|-9-9-9-9-9-9-9-9-|-9---------------|
            
Tabs too difficult? Try these video lessons and learn fast.




comments powered by Disqus
↑ Back to top | Tablatures and chords are parodies/interpretations of the original songs. You may use it for private study, scholarship, research or language learning purposes only