>
 >
Pandora 4

Pandora 4 Bass Tabs

Madina Lake - Pandora 4 chords, tabs, tablatures, lyrics

Guitar lessons | Add/correct | Request | Top 50 tabs Artists:  A B C D E F G H I J K L M N O P Q R S T U V W X Y Z 0-9

Pandora 4 Bass Tabs – Madina Lake

CD, Sheet music, Poster

Do you like Pandora 4? Share with your friends now
Bass TabsBass Tabs v2Bass Tabs v3Bass Tabs v4ChordsChords v2Chords v3Chords v4TabsTabs v2Ukulele
This song IS in standard tuning for bass.

Bass part comes in at 0:15

Verse:
G------------------------------------------------------------|   x3
D-----------------------------------------4-------------4----|
A--7-7-10-10-7-7-5-7-----------------------------------------|
E--------------------3-3-3-3-5--2-2-2-2-2-----0-2-2-2-2------|

G---------------------------------------------------------|
D-----------------------------------------4---------------|
A--7-7-10-10-7-7-5-7--------------------------------------|
E--------------------3-3-3-3-5--2-2-2-2-2-----0-2-2-2-2-2-|

Chorus:
G-----------------------------------------------------------------|
D-----------------------------------------------------------------|
A-0-0-0-0-0-0-0-0-2-2-2-2-2-2-2-2-4-4-4-4-4-4-4-4-----------------|
E-------------------------------------------------4-4-4-4-4-4-2-4-|

G----------------------------------------------------------------|
D------------------------------------------------------9---------|
A-0-0-0-0-0-0-0-0-2-2-2-2-2-2-2-2-4-4-4-4-4-4-4-4-9-11----11---9-|
E----------------------------------------------------------------|

G-----------------------------------------------------------------|
D-----------------------------------------------------------------|
A-0-0-0-0-0-0-0-0-2-2-2-2-2-2-2-2-4-4-4-4-4-4-4-4-----------------|
E-------------------------------------------------4-4-4-4-4-4-2-4-|

G-----------------------------------------------------------------|
D-----------------------------------------------------------------|
A-0-0-0-0-0-0-0-0-2-2-2-2-2-2-2-2-4-4-4-4-4-4-4-4-4-4-4-4-4-4-4-4-|
E-----------------------------------------------------------------|
Break, then bass comes back in at 1:14
Verse x1
Chorus x1

Then another Break, bass comes back in at 2:20
G--------------------------------------------------------------------------------|
D--------------------------------------------------------------------------------|
A77777777777777771010101010101010101010101010109999999999999999779999999999999999
E--------------------------------------------------------------------------------
x2 on above section, then:

G------------------------------------------------------------------| x2
D------------------------------------------------------------------|
A\-(slide down from last 9 on prev. section)-----------------------|
E-0-0-0-0-0-0-0-0-3-3-3-3-3-3-3-3-2-2-2-2-2-2-2-2-2-2-2-2-2-2-2-2--|

Then Final Chorus, which is different:

G------------------------------------------------------------------| x3
D------------------------------------------------------------------|
A-0-0-0-0-0-0-0-0-2-2-2-2-2-2-2-2-4-4-4-4-4-4-4-4------------------|
E-------------------------------------------------4-4-4-4-4-4-2-4--|

G-----------------------------------------------------------------|
D-----------------------------------------------------------------|
A-0-0-0-0-0-0-0-0-2-2-2-2-2-2-2-2-4-4-4-4-4-4-4-4-4-4-4-4-4-4-4-4-|
E-----------------------------------------------------------------|





Comments


Popular Madina Lake tabs & chords
What's The Point Bass Tabs
Friends And Lovers Chords
One Last Kiss 2 Chords
Me Vs The World Tabs
Pandora 1 Tabs
The Auspice Tabs
Wait Till Sunrise Tabs
Legends Ukulele
Morning Sadness Ukulele
One Last Kiss Ukulele


Song lyrics



↑ Back to top | Tablatures and chords are parodies/interpretations of the original songs. You may use it for private study, scholarship, research or language learning purposes only
© 2014 AZChords.com Contact us | Privacy policy | DMCA | Add/correct tabs | Request tabs | Top 50 tabs