» » »

Madina Lake, Now Or Never Tabs (ver.1)

Artists:  A B C D E F G H I J K L M N O P Q R S T U V W X Y Z # 

Now Or Never Tabs (ver.1)

Madina Lake Tabs
 Rating:
4/5 (6 votes)
Now Or Never lessons Tabs too difficult? Try these video lessons and learn fast
                -------------------------------------------------------------------------------
-------------------------------------------------------------------------------

Tuning:Drop C (C,G,C,F,A,D)

Intro
D|-------------------------------------------------------------------|\
A|-------------------------------------------------------------------| \
F|-------------------------------------------------------------------|  \
C|-------------------------------------------------------------------|   \
G|-0000000000000000-4444444444444444-7777777777777777----------------|    \
C|-0000000000000000-4444444444444444-7777777777777777----------------|     \   
 Pm..................................................                     x2

D|-------------------------------------------------------------------|     /    
A|-------------------------------------------------------------------|    /
F|-------------------------------------------------------------------|   /
C|------------------7--7--7---6--6-666-------------------------------|  /
G|-0000000000000000-7--7--7---7--7-777-------------------------------| /
C|-0000000000000000-777777777-6666-666-------------------------------|/
 Pm................. .. .. ..  .. 


Pre-chorus
D|---------------------------|
A|---------------------------|
F|---------------------------|
C|---------------------------|
G|---------------------------|
C|---------------------------|


Chorus
D|---------------------------|----------------------------------------------|
A|---------------------------|----------------------------------------------|
F|---------------------------|----------------------------------------------|
C|--777---999---0~-----------|-----2-2-2-2-2-2-xx-xx-2-2-2-2-2-2------------|
G|--777---999---0~-----------|-----2-2-2-2-2-2-xx-xx-2-2-2-2-2-2------------|
C|--777---999---0~--x3-------|-----2-2-2-2-2-2-xx-xx-2-2-2-2-2-2------------|


Verse
D|---------------------------|
A|---------------------------|
F|-----[No guitar]-----------|
C|---------------------------|
G|---------------------------|
C|---------------------------|

D|----------------------------------------------------|
A|----------------------------------------------------|
F|----------------------------------------------------|
C|-0000000000000000-4444444444444444-7777777777777777-|
G|-0000000000000000-4444444444444444-7777777777777777-|
C|-0000000000000000-4444444444444444-7777777777777777-|

D|----------------------------------------------------|
A|----------------------------------------------------|
F|----------------------------------------------------|
C|-0000000000000000-7777777777777777-9999999999999999-|
G|-0000000000000000-7777777777777777-9999999999999999-|
C|-0000000000000000-7777777777777777-9999999999999999-|


Pre-chorus
D|------------------------------|
A|------------------------------|
F|------------------------------|
C|------------------------------|
G|------------------------------|
C|------------------------------|


Chorus
D|------------------------------|-------------------------------------------|
A|------------------------------|-------------------------------------------|
F|------------------------------|-------------------------------------------|
C|--777---999---0~--------------|-----2-2-2-2-2-2-xx-xx-2-2-2-2-2-2---------|
G|--777---999---0~--------------|-----2-2-2-2-2-2-xx-xx-2-2-2-2-2-2---------|
C|--777---999---0~--x3----------|-----2-2-2-2-2-2-xx-xx-2-2-2-2-2-2---------|



D|------------------------------|-------------------------------------------|
A|------------------------------|-------------------------------------------|
F|------------------------------|-------------------------------------------|
C|-7------2-4------0------2-----|-7------2-4------0-----222222-xx-xx-222222-|
G|-7------2-4------0------2-----|-7------2-4------0-----222222-xx-xx-222222-|
C|-7-x16--2-4-x16--0-x16--2-x16-|-7-x16--2-4-x16--0-x16-222222-xx-xx-222222-|

D|------------------------------|-------------------------------------------|
A|------------------------------|-10-1010-----1010101010101010--------------|
F|------------------------------|--9--9-9------9-9-9-9-9-9-9-9--------------|
C|------------------------------|--9--9-9-x6---9-9-9-9-9-9-9-9--------------|
G|------------------------------|-------------------------------------------|
C|------------------------------|-------------------------------------------|


Outro
D|--------------------------------------------------------------------------|
A|--------------------------------------------------------------------------|
F|--------------------------------------------------------------------------|
C|-7------0------7------0------4------0------2------------------------------|
G|-7------0------7------0------4------0------2------------------------------|
C|-7-x16--0-x16--7-x16--0-x16--4-x16--0-x16--2-x32--------------------------|x2



| /  slide up
| \  slide down
| h  hammer-on
| p  pull-off
| ~  vibrato
| +  harmonic
| x  Mute note
===============================================================================
            
Submit corrections

comments powered by Disqus
↑ Back to top | Madina Lake Tabs for Now Or Never. Lyrics for acoustic guitar and electric guitar. Tablatures and chords are parodies/interpretations of the original songs. You may use it for private study, scholarship, research or language learning purposes only