» » »

Heroine Bass tabs (ver.1)

Artists:  A B C D E F G H I J K L M N O P Q R S T U V W X Y Z # 

Heroine Bass tabs (ver.1)

Madina Lake
Rating:
5/5 (3 votes)

Hard to play? Try these video lessons and learn fast.
                -------------------------------------------------------------------------------
-------------------------------------------------------------------------------






Tuning: Drop C.





Chorus [00:29]

F|--------------------------------------|
C|--------------------------------------|
G|--1(x8)--5(x8)----------8-10----------|     [x2]
C|----------------5(x8)-5------5-5(x4)--|

F|------------------|
C|------------------|
G|------------------|
C|--3(x16)--1(x16)--|



Verse [00:56]

F|-----------------------------------------------|
C|----------4--------4---------------------------|
G|------4-6---6--4-6---6\--------------------4~--|
C|--6~---------------------4-6-6-6--4-6-6-6------|

F|---------------------------------------|
C|------4--------4-----------------------|
G|--4-6---6--4-6---6\--------------------|
C|---------------------4-6-6-6--4-6-6-6--|



Chorus [01:14]

F|--------------------------------------|
C|--------------------------------------|
G|--1(x8)--5(x8)----------8-10----------|     [x2]
C|----------------5(x8)-5------5-5(x4)--|

F|------------------|
C|------------------|
G|------------------|
C|--3(x16)--1(x16)--|



Break [01:36]



Chorus [02:05]

F|--------------------------------------|
C|--------------------------------------|
G|--1(x8)--5(x8)----------8-10----------|   
C|----------------5(x8)-5------5-5(x4)--|

F|-----------------------------------------|
C|-----------------------------------------|
G|--1(x8)--55558555----------8-10----------|   
C|-------------------5(x8)-5------5-5(x4)--|

F|--------------------------------------|
C|--------------------------------------|
G|--1(x8)--5(x8)----------8-10----------|   
C|----------------5(x8)-5------5-5(x4)--|

F|------------------|
C|------------------|
G|------------------|
C|--3(x16)--1(x16)--|





| /  slide up
| \  slide down
| h  hammer-on
| p  pull-off
| ~  vibrato
| +  harmonic
| x  Mute note
===============================================================================
            
Hard to play? Try these video lessons and learn fast. | Correct




comments powered by Disqus
↑ Back to top | Tablatures and chords are parodies/interpretations of the original songs. You may use it for private study, scholarship, research or language learning purposes only