» » »

Madina Lake, A Beautiful Life Bass tabs (ver.1)

Artists:  A B C D E F G H I J K L M N O P Q R S T U V W X Y Z # 

A Beautiful Life Bass tabs (ver.1)

Madina Lake Tabs
 Rating:
4.4/5 (7 votes)
A Beautiful Life lessons Tabs too difficult? Try these video lessons and learn fast
                -------------------------------------------------------------------------------
-------------------------------------------------------------------------------






Tuning: Drop C.





Intro [00:00]

F|--------------------------|
C|--------------------------|
G|--1(x16)--0(x16)----------|
C|------------------5(x32)--|



Verse [00:21]

F|----------------------------------------------|
C|----------------------------------------------|
G|--5-3-5-----5-3-5-----5-3-5-------------------|
C|--------0---------0---------0---3-0-3--6-3-5--|

F|-------------------------------|
C|-------------------------------|
G|--5-3-5-----5-3-6-----5-3-5----|
C|--------0---------0---------0--|



Chorus [00:32]

F|----------------------------------------|
C|----------------------------------------|
G|--1(x16)--0(x16)------------------------|
C|------------------5(x8)--5-3-0--3(x16)--|

F|----------------------------------------|
C|----------------------------------------|
G|--1(x16)--0(x16)------------------------|
C|------------------5(x8)--5-3-0--5(x16)--|



Verse [00:59]

F|----------------------------------------------|
C|----------------------------------------------|
G|--5-3-5-----5-3-5-----5-3-5-------------------|
C|--------0---------0---------0---3-0-3--6-3-5--|


[01:15]

F|--------------------------|
C|--------------------------|
G|--5-3-5-----3~---2~---1~--|
C|--------0-----------------|



Chorus [01:25]

F|----------------------------------------|
C|----------------------------------------|
G|--1(x16)--0(x16)------------------------|
C|------------------5(x8)--5-3-0--3(x16)--|

F|----------------------------------------|
C|----------------------------------------|
G|--1(x16)--0(x16)------------------------|
C|------------------5(x8)--5-3-0--5(x16)--|



Bridge [01:57]

F|------------------------------------------|
C|------------------------------------------|
G|--5(x32)--1(x32)--5(x32)--1(x16)--0(x16)--|
C|------------------------------------------|



Chorus [02:19]

F|----------------------------------------|
C|----------------------------------------|
G|--1(x16)--0(x16)------------------------|
C|------------------5(x8)--5-3-0--3(x16)--|

F|----------------------------------------|
C|----------------------------------------|
G|--1(x16)--0(x16)------------------------|
C|------------------5(x8)--5-3-0--5(x16)--|

F|---------------------------------------|
C|---------------------------------------|
G|--1--1--1~---1-------------------------|
C|----------------3--0~---0--0--0~---0~--|





| /  slide up
| \  slide down
| h  hammer-on
| p  pull-off
| ~  vibrato
| +  harmonic
| x  Mute note
===============================================================================
            
Submit corrections

comments powered by Disqus
↑ Back to top | Madina Lake Bass for A Beautiful Life. Lyrics for acoustic guitar and electric guitar. Tablatures and chords are parodies/interpretations of the original songs. You may use it for private study, scholarship, research or language learning purposes only