» » »

Made Out Of Babies, The Major Tabs (ver.1)

Artists:  A B C D E F G H I J K L M N O P Q R S T U V W X Y Z # 

The Major Tabs (ver.1)

Made Out Of Babies Tabs
 Rating:
4/5 (4 votes)
The Major lessons Tabs too difficult? Try these video lessons and learn fast
                MADE OUT OF BABIES

THE MAJOR


DROP-D TUNING

|-----------------------------------------------|
|-----------------------------------------------|
|-----0---------0----------0---------0----------|
|--------2--------3-----------2--------3--------|
|--0----------0---------0----------0-------0----|
|-----------------------------------------------|
intro (play once in verse as well)      with tremolo effect

|--------------------------------------------------------------------|
|--5-6-8-10---11-10-8--8h10-8-6---5h6h8--6-5-----5-5-5h6-5--3--------|
|---------------------------------------------2----------------------|
|--------------------------------------------------------------------|
|--------------------------------------------------------------------|
|---------------------------------------------------------------0----|
intro continued

loosely play these chords (x4)
|----------------------|------------------------------------------------|
|----------------------|------------------------------------------------|
|--2---3-3-3h5-3-2-3-2-|--0-2-2h3-2-----------------1-1-1---------------|
|--2---2-2-2-2-2-2-2-2-|------------3--2h3h5--3-2---1-1-1-3--2--0-------|
|--0---0-0-0-0-0-0-0-0-|--------------------------0---------------------|
|----------------------|--------------------------------------------0---|
2nd part of verse 1 (and only part of 2nd verse)

|--------------------------------------------------------|
|--------------------------------------------------------|
|---7--7--7--7/8--8--8--7--7--7--7--8--8--8\7--7--7--7---|
|---7--7--7--7/8--8--8--7--7--7--7--8--8--8\7--7--7--7---|
|---5--5--5--5/6--6--6--5--5--5--5--6--6--6\5--5--5--5---|
|---0--0--0--0----------0--0--0--0----------0--0--0--0---|
chorus

|-------------------------------------|
|-------------------------------------|
|--11-11-11--9--9--9-10-10-10--9--9---|
|-------------------------------------|
|---9--9--9--7--7--7--8--8--8--7--7---|
|-------------------------------------|
chorus continued

|-------------------------------------------------------------------|
|-------------------------------------------------------------------|
|-------------------------------------------------------------------|
|-------------------------------------------------------------------|
|--2-2-2-2-2-2-2-2-2-2-2-2-2-2-2-2-2-2-2-2-2-2-2-2-2-2-2-2-2-2-2-2--|
|--0-0-0-0-0-0-0-0-0-0-0-0-0-0-0-0-0-0-0-0-0-0-0-0-0-0-0-0-0-0-0-0--|
break   palm mute

|--------------------------------------------------|
|--------------------------------------------------|
|--7-----7-----7/8-8--7-----7-----14-15-14-17-19---|
|--------------------------------------------------|
|--5-----5-----5/6-6--5-----5-----12-13-12-15-17---|
|----0-0---0-0----------0-0---0-0------------------|
break continued    note: i don't think this is how it's actually played. there is an overdub
doing the high notes so i tabbed it like this to sound like the record.

|-------------------------------|
|-------------------------------|
|--19-20-19-17-14----10-11-10---| return to beginning of octave part
|-------------------------------|
|--17-18-17-15-12-----8--9--8---|
|-----------------0-0-----------|
break continued

third verse is the chord part of verse 2 a few times and then the chorus until end.
            
Submit corrections

comments powered by Disqus
↑ Back to top | Made Out Of Babies Tabs for The Major. Lyrics for acoustic guitar and electric guitar. Tablatures and chords are parodies/interpretations of the original songs. You may use it for private study, scholarship, research or language learning purposes only