» » »

El Morgan Tabs (ver.1)

Artists:  A B C D E F G H I J K L M N O P Q R S T U V W X Y Z # 

El Morgan Tabs (ver.1)

Made Out Of Babies
Rating:
0/5 (0 votes)

Hard to play? Try these video lessons and learn fast.
                MADE OUT OF BABIES

EL MORGAN


DROP-D TUNING

|-----------------------------------------------------------------|
|-----------------------------------------------------------------|
|--7-7-7-7-7-7-7--7-7-7-7-7-7-7---8-8-8-8-8-8-8-8---8-8-8-8-8-8---|
|--7-7-7-7-7-7-7--7-7-7-7-7-7-7---8-8-8-8-8-8-8-8---8-8-8-8-8-8---|
|--5-5-5-5-5-5-5--6-5-5-5-6-5-5---6-6-6-6-6-6-6-6---6-6-6-6-6-6---|
|--0-0-0-0-0-0-0--0-0-0-0-0-0-0---0-0-0-0-0-0-0-0---0-0-0-0-0-0---|
intro/verse      strum loosely and lightly until 0:58 when played loudly a few times

|---------------------------------------------------------------|
|---------------------------------------------------------------|
|---------------------------------------------------------------|
|--9-9-9-9-9-9-9--10-9-9-9-10-9-9--3-3--2-2--0---3-2-0-2-3-2-3/-|
|--9-9-9-9-9-9-9--10-9-9-9-10-9-9--3-3--2-2--0---3-2-0-2-3-2-3/-|
|--9-9-9-9-9-9-9--10-9-9-9-10-9-9--3-3--2-2--0---3-2-0-2-3-2-3/-|
bridge part (1:56)  palm mute all notes first few repeats, then play loudly a few times,
then repeat parts again.

once bridge part ends, the intro part is played a few times, but with this
fill at end of it (3:59):
|----------------------------|
|----------------------------|
|----------------------------|
|----------------------------|
|---/8-7-----7-8-7-10-7-8-7--|
|--------8-------------------|

after bass break, play this: (repeat as necessary)
|--------------------------------------------------------|
|--------------------------------------------------------|
|-10-10--7-7--14-14-14-14--9-10-10--7-7--15-15-15-15--9--|
|--------------------------------------------------------|
|--8--8--5-5--12-12-12-12--7--8--8--5-5--13-13-13-13--7--|
|--------------------------------------------------------|

there is another guitar playing behind outro, but it just makes loads of noise
to figure out.

end on:
|---------------------|
|---------------------|
|-10-10--7--7--7--7---|
|-10-10--7--7--7--7---|
|--8--8--5--5--5--5---|
|--------0--0--0--0---|

that's everything.
            
Hard to play? Try these video lessons and learn fast. | Correct




comments powered by Disqus
↑ Back to top | Tablatures and chords are parodies/interpretations of the original songs. You may use it for private study, scholarship, research or language learning purposes only