» » »

Madeleine Peyroux, You're Gonna Make Me Lonesome When You Go Tabs (ver.1)

Artists:  A B C D E F G H I J K L M N O P Q R S T U V W X Y Z # 

You're Gonna Make Me Lonesome When You Go Tabs (ver.1)

Madeleine Peyroux Tabs
 Rating:
4/5 (4 votes)
You're Gonna Make Me Lonesome When You Go lessons Tabs too difficult? Try these video lessons and learn fast
1
                This is NOT an authentic tab, i cant really hear that much guitar in it anyway. But this 
is the way I play it and i think it sounds okay. Questions or comments are as always appreciated!

Intro/Verse

-------------------|
--5---5s7--7-------|
--6---6----6-------|
--6---6----7-------|
-----------5-------|
--5---5------------|

guitar part over the intro/vers
or something like it.
--------------------|
--5--5s7--7s5--2s3--|
--4--4s6--6s4--1s2--|
--------------------|
--------------------|
--------------------|

In the bridge i play it like this.

--------------------------------------------------|
---7---5---7---5---9---7----12--10--9--7---5------|
---7---6---7---6---9---7----13--11--9--7---6------|
---7---6---7---6---9---7----14--12--9--7---6------|
--------------------------------------------------|
---7---5---7---5---9---7----12--10--9--7---5------|

the (12x141312) chord can be played (12x131312) as well
just like the (10x121110) can be played (10x111110)


Have fun!
            
Submit corrections

comments powered by Disqus
↑ Back to top | Madeleine Peyroux Tabs for You're Gonna Make Me Lonesome When You Go. Lyrics for acoustic guitar and electric guitar. 1 Tablatures and chords are parodies/interpretations of the original songs. You may use it for private study, scholarship, research or language learning purposes only