» » »

Madeleine Peyroux, Weary Blues Tabs (ver.1)

Artists:  A B C D E F G H I J K L M N O P Q R S T U V W X Y Z # 

Weary Blues Tabs (ver.1)

Madeleine Peyroux Tabs
 Rating:
4/5 (4 votes)
Weary Blues lessons Tabs too difficult? Try these video lessons and learn fast
                (Intro)

e|----5--7--8----7h8p7----5h7p5----5--7--8-------------------------------|
B|--5--------------------------------------5-----------------------------|
G|-----------------------------------------------5\7-9----7h9-7----7/5---|
D|-----------------------------------------------------------------------|
A|-----------------------------------------------------------------------|
E|-----------------------------------------------------------------------|


e|---------------------------------5------5------------------------------|
B|--------------------10--------3\5----3\5----3h5p3-1----5/7-9-5---------|
G|----5\7-9-------------9\5--------------------------------------7-------|
D|--7--------------------------------------------------------------------|
A|-----------------------------------------------------------------------|
E|-----------------------------------------------------------------------|


e|-----+12----------------------------5---5-----5----------7--8--7-7\8--7|
B|--+12--------------------------------3\5--3\5--3\5-1-----7--8--7-7\8--7|
G|-----------7h9-7-----7h9p7-5--7----------------------------------------|
D|-----------------------------------------------------------------------|
A|-----------------------------------------------------------------------|
E|-----------------------------------------------------------------------|

e|-----------------------------------------------------------------------|
B|-----------------------------------------------------------------------|
G|--7h8p7p5-7h8p7p5--7-7h8p7~--------------------------------------------|
D|-----------------------------------------------------------------------|
A|-----------------------------------------------------------------------|
E|-----------------------------------------------------------------------|


| / slide up
| \ slide down
| h hammer-on
| p pull-off
| + harmonic
| ~ vibrato
--------------------------------------------------------------------------
I'm not sure how to write the harmonics(+), so excuse me if it's wrong
            
Submit corrections

comments powered by Disqus
↑ Back to top | Madeleine Peyroux Tabs for Weary Blues. Lyrics for acoustic guitar and electric guitar. Tablatures and chords are parodies/interpretations of the original songs. You may use it for private study, scholarship, research or language learning purposes only