» » »

Out/Definition Bass tabs (ver.1)

Artists:  A B C D E F G H I J K L M N O P Q R S T U V W X Y Z # 

Out/Definition Bass tabs (ver.1)

Mad Capsule Markets
Rating:
0/5 (0 votes)

Hard to play? Try these video lessons and learn fast.
                

Verses

G------------------------------------------------------------------------------------
D------------------------------------------------------------------------------------
A------------------------------------------------------------------------------------
E----0-------0--------0---5----0-----------------------------------------------------

Chorus

G------------------------------------------------------------------------------------
D------------------------------------------------------------------------------------
A------------------------------------------------------------------------------------
E------4-3-5-4-4-3-5-4-4-3-5-4-4-3-5-4-4-3-5-4-4-3-5-4-0-----------------------------



G------------------------------------------------------------------------------------
D------------------------------------------------------------------------------------
A------------------------------------------------------------------------------------
E---0-6-5-6-5-0-6-5-6-5-0-6-5-6-5-0--------------------------------------------------

Outro


G------------------------------------------------------------------------------------
D------------------------------------------------------------------------------------
A------------------------------------------------------------------------------------
E------4-3-5-4-3-2-4-3-2-1-3-2-1-0-2-1-----------------------------------------------
            
Hard to play? Try these video lessons and learn fast. | Correct




comments powered by Disqus
↑ Back to top | Tablatures and chords are parodies/interpretations of the original songs. You may use it for private study, scholarship, research or language learning purposes only