» » »

Mad Capsule Markets, Kouen E Ato Sukushi Bass tabs (ver.1)

Artists:  A B C D E F G H I J K L M N O P Q R S T U V W X Y Z # 

Kouen E Ato Sukushi Bass tabs (ver.1)

Mad Capsule Markets Tabs
 Rating:
4/5 (4 votes)
Kouen E Ato Sukushi lessons Tabs too difficult? Try these video lessons and learn fast
1
                Submited by MadSam
Tuning - standard

G
D
A
E

Drums start playing then bass comes in

G--------
D--------
A-0--2--4
E--------

Main Riff
(this is such a cool bass line)

G------------------------------------
D-----------14-12-12-11-12-11-12-11-9
A-5454-/7-7-------------------------- 3x
E------------------------------------
                                          <---- Note these are 14's 12's and 11's
                                                not 1's,2's and 4's
G-------------------------------------
D-----------14-12-12-11-12-11-12-14-11
A-5454-/7-7---------------------------
E-------------------------------------

Verse

G------------
D------------
A-54545-0-2-4
E------------

G------------
D------------
A-54545-5-4-2
E------------

G------------
D------------
A-54545-0-2-4
E------------

G------------
D------------
A-54545-4-5-7
E------------

Chorus

G--------------------
D--------------------
A-5555-0000-2222-----
E----------------2222

There you go, if anyone has park or have downloaded the song I hope you enjoy this song.
            
Submit corrections

comments powered by Disqus
↑ Back to top | Mad Capsule Markets Bass for Kouen E Ato Sukushi. Lyrics for acoustic guitar and electric guitar. 1 Tablatures and chords are parodies/interpretations of the original songs. You may use it for private study, scholarship, research or language learning purposes only