» » »

Mad Capsule Markets, Bit Crusherrrrrr Tabs (ver.1)

Artists:  A B C D E F G H I J K L M N O P Q R S T U V W X Y Z # 

Bit Crusherrrrrr Tabs (ver.1)

Mad Capsule Markets Tabs
Rating:
0/5 (0 votes)
Bit Crusherrrrrr lessons Tabs too difficult? Try these video lessons and learn fast
                
Key
…. – Palm Muted.
R – Let Note Ring.

Main Riff
E----------------------------------------------------------------
B----------------------------------------------------------------
G---------------------------------------------------------------- x 18
D----------------------------------------------------------------
A--0-0-3-2r-----------------------------------------------------
E--0-0-3-2r-----------------------------------------------------
     .    
Fill 

A-0--------------------------------------------------------------- x 1
E-0---------------------------------------------------------------
Slight Pause

Repeat Main Riff x 18

Repeat Fill x 1

Repeat Main Riff x 20(roughly)

Repeat Fill x 1 this time with a longer pause while Kyono Talks

Interlude 1
E----------------------------------------------------------------
B----------------------------------------------------------------
G---------------------------------------------------------------- x 12
D----------------------------------------------------------------
A--3-2-0-0-0-1-------------------------------------------------
E--3-2-0-0-0-1-------------------------------------------------
Slight pause after each time played. On 12 th time let last note ring

Interlude 2 
E----------------------------------------------------------------
B----------------------------------------------------------------
G---------------------------------------------------------------- x 7 
D----------------------------------------------------------------
A--3-2-0-0-0-2r------------------------------------------------
E--3-2-0-0-0-2r------------------------------------------------

Outro
E----------------------------------------------------------------
B---------------------------------------------------------------- 
G---------------------------------------------------------------- 
D----------------------------------------------------------------
A--0-3-2--------------------------------------------------------
E--0-3-2--------------------------------------------------------
Repeat several times quickly until end letting the last note ring

That’s pretty much it, great song with a kick ass guitar riff. Please note all this is my own work so if the timing is off or the number of times played is please adjusted to how you feel and enjoy!
            

comments powered by Disqus
↑ Back to top | Mad Capsule Markets Tabs for Bit Crusherrrrrr. Lyrics for acoustic guitar and electric guitar. Tablatures and chords are parodies/interpretations of the original songs. You may use it for private study, scholarship, research or language learning purposes only