>
 >
010

010 Guitar Tabs

Mad Capsule Markets - 010 chords, tabs, tablatures, lyrics

Guitar lessons | Add/correct | Request | Top 50 tabs Artists:  A B C D E F G H I J K L M N O P Q R S T U V W X Y Z 0-9

010 Guitar Tabs – Mad Capsule Markets

CD, Sheet music, Poster

Do you like 010? Share with your friends now
Tabs
THE MAD CAPSULE MARKETS - 010 - INDRODUCTION 010

HERE WE ARE, THE WHOLE OF THE 010 ALBUM BY THE MAD CAPSULE MARKETS.
I DID USE THE OFFICIAL 010 SCORE BOOK BUT SINCE I DON’T OWN A 7 STRING GUITAR I CONVERTED
ALL THOSE PARTS INTO A 6 STRING GUITAR AND SINCE SOME PEOPLE MAY NOT BE ABLE TO GET 
OF ONE OF THESE SCORE BOOKS…

THE SONG STUCTURE ARE EASY TO WORK OUT SO I DIDN’T PUT THEM DOWN. AND I ALSO MISSED OUT ‘WARDANCE’
AS IS A KILLING JOKE COVER SO I FELT NO NEED TO PUT THAT IN.

PLEASE REMEMBER TO CHANGE TUNE OR GUITARS THROUGH THE SONGS AS SOME ARE IN DROP B AND SOME
ARE STANDARD.

THANK YOU
-CHRIS ‘BITCRUSHERRR’

P.S. WHERE IS MY SHAKA BUDDAH?


010 - INDRODUCTION 010#####################################################################
BEADF#B

MAIN VERSE RIFF
 |-----------------------------------------------------------------------------------------|
 |-----------------------------------------------------------------------------------------|
 |-----------------------------------------------------------------------------------------|
 |-----------------------------------------------------------------------------------------|
 |--2--2--2--2-2-2--2--2-2-2-2-------------------------------------------------------------|
 |--0--0--0--0-0-0--0--0-0-0-0-------------------------------------------------------------|

CHORUS
 |-----------------------------------------------------------------------------------------|
 |-----------------------------------------------------------------------------------------|
 |-----------------------------------------------------------------------------------------|
 |-----------------------------------------------------------------------------------------|
 |--2--2-2--3-3----------------------------------------------------------------------------|
 |--0--0-0--1-1----------------------------------------------------------------------------|
      PMPM

010 - COME.################################################################################
BEADF#B

MAIN VERSE RIFF
 |-----------------------------------------------------------------------------------------|
 |-----------------------------------------------------------------------------------------|
 |-----------------------------------------------------------------------------------------|
 |-----------------------------------------------------------------------------------------|
 |--2--2-2-2-------------------------------------------------------------------------------|
 |--0--0-0-0-------------------------------------------------------------------------------|

CHORUS
 |-----------------------------------------------------------------------------------------|
 |-----------------------------------------------------------------------------------------|
 |-----------------------------------------------------------------------------------------|
 |-----------------------------------------------------------------------------------------|
 |--2--2-2-8-------------------------------------------------------------------------------|
 |--0--0-0-6-------------------------------------------------------------------------------|

SCRATCHY/GLISS PART BEHIND BASS RIFF
 |--12121212121212121212121212///11--------------------------------------------------------|
 |--11111111111111111111111111///10--------------------------------------------------------|
 |--10101010101010101010101010///9---------------------------------------------------------|
 |-----------------------------------------------------------------------------------------|
 |--------------------------------------------------------------2-2-2----------------------|
 |--------------(HIT THIS ON THE LAST BAR AFTER THE BASS SOLO)--0-0-0----------------------|


010 - CHAOS STEP###########################################################################
EADGBE

MAIN RIFF
 |-----------------------------------------------------------------------------------------|
 |-----------------------------------------------------------------------------------------|
 |-----------------------------------------------------------------------------------------|
 |-----------------------------------------------------------------------------------------|
 |--4-5/7\6-6-6-6--------------------------------------------------------------------------|
 |--2-3/5\4-4-4-4--------------------------------------------------------------------------|

BREAKDOWN RIFF
 |-----------------------------------------------------------------------------------------|
 |-----------------------------------------------------------------------------------------|
 |-----------------------------------------------------------------------------------------|
 |-----------------------------------------------------------------------------------------|
 |--6-6—-6-6-6-6--6—6-6-6--6-6-6—6---------------------------------------------------------|
 |--4-4—-4—4-4-4--4-4-4-4--4-4-4-4---------------------------------------------------------|
     PMPMPMPMPMPMPMPMPMPMPMPMPMPMPM  (BEHIND LYRICS OF 'CHAOS STEP! CHAOS STEP!')


010 - GAGA LIFE############################################################################
BEADF#B

INTRO AND PRE-VERSE
 |-----------------------------------------------------------------------------------------|
 |-----------------------------------------------------------------------------------------|
 |-----------------------------------------------------------------------------------------|
 |-----------------------------------------------------------------------------------------|
 |--2-2--2-2--2-2--2--2--6-7---------------------------------------------------------------|
 |--0-0--0-0--0-0--0--0--4-5---------------------------------------------------------------|

VERSE
 |-----------------------------------------------------------------------------------------|
 |-----------------------------------------------------------------------------------------|
 |-----------------------------------------------------------------------------------------|
 |-----------------------------------------------------------------------------------------|
 |--2--2-2-2-2-2-2-2--6-7------------------------------------------------------------------|
 |--0--0-0-0-0-0-0-0--4-5------------------------------------------------------------------|
        PMPMPMPMPMPMPM
CHORUS
 |-----------------------------------------------------------------------------------------|
 |-----------------------------------------------------------------------------------------|
 |-----------------------------------------------------------------------------------------|
 |-------------9-9-9-9-9-------------9-9-9-9-9-------------9-9-9-9-9-----------------------|
 |--7-7-7-7-7--7-7-7-7-7--7-7-7-7-7--7-7-7-7-7--7-7-7-7-7--7-7-7-7-7--4-4-4-4-4--2-2-2-2-2-|
 |--5-5-5-5-5--0-0-0-0-0--5-5-5-5-5--0-0-0-0-0--5-5-5-5-5--0-0-0-0-0--2-2-2-2-2--0-0-0-0-0-|
 (THIS PART MADE FOR TWO GUITARS SO I CONDENSED IT TO THIS...)

 |-----------------------------------------------------------------------------------------|
 |-----------------------------------------------------------------------------------------|
 |-----------------------------------------------------------------------------------------|
 |-----------------------------------------------------------------------------------------|
 |--7-7-7-7-7--2-2-2-2-2—-7-7-7-7-7—-2-2-2-2-2---------------------------------------------|
 |--5-5-5-5-5--0-0-0-0-0--5-5-5-5-5--0-0-0-0-0---------------------------------------------|
(BEHIND THE LAST ‘YEEEEEEEE-AAAAH, YEEEEEEA-AAAAH’’s

010 - JAM!#################################################################################
BEADF#B

MAIN RIFF
 |-----------------------------------------------------------------------------------------|
 |-----------------------------------------------------------------------------------------|
 |-----------------------------------------------------------------------------------------|
 |-----------------------------------------------------------------------------------------|
 |------2-(DOESN’T COME IN UNTIL 2:44)-----------------------------------------------------|
 |--0-0-0----------------------------------------------------------------------------------|
   PMPM


010 – KUMO#################################################################################
EADGBE

VERSE PART  (NATURAL HARMONICS)
 |-----12-ARM VIB-12-(GUITAR DOESN’T COME IN UNTIL 1:11------------------------------------|
 |--12-------------------------------------------------------------------------------------|
 |-----------------------------------------------------------------------------------------|
 |-----------------------------------------------------------------------------------------|
 |-----------------------------------------------------------------------------------------|
 |-----------------------------------------------------------------------------------------|

PRE-CHORUS
 |-----------------------------------------------------------------------------------------|
 |-----------------------------------------------------------------------------------------|
 |-----------------------------------------------------------------------------------------|
 |-----------------------------------------------------------------------------------------|
 |-----------------------(NOT UNTIL SECOND CHORUS)-----------------------------------------|
 |--0-0-2-0--4-4-0--5-4--------------------------------------------------------------------|
     HALF PALM MUTE  ALL


RIFF BEHIND LYRICS 'RISING FROM THIS GROUND, AND IT COMES TO SHED THE LIGHT...'
 |--------------0~~~~~~~~~~~~~~~-----------------------------------------------------------|
 |--------------0~~~~~~~~~~~~~~~-----------------------------------------------------------|
 |--1~~~~~~~~~~~0~~~~~~~~~~~~~~~-----------------------------------------------------------|
 |--2~~~~~~~~~~~---------------------------------------------------------------------------|
 |--2~~~~~~~~~~~---------------------------------------------------------------------------|
 |--0~~~~~~~~~~~---------------------------------------------------------------------------|

END RIFFS THESE PLAYED OVERLAPPED BEHIND LYRICS 'OOOOOOHH-OOOH'
 |--------4~~~~--------2~~~~~~-------------------------------------------------------------|
 |--------4~~~~--------2~~~~~~-------------------------------------------------------------|
 |--1-1-1--------1-1-1---------------------------------------------------------------------|
 |--2-2-2--------2-2-2---------------------------------------------------------------------|
 |--2-2-2--------2-2-2---------------------------------------------------------------------|
 |--0-0-0--------0-0-0---------------------------------------------------------------------|

BEHIND THIS RIFF NEAR THE END IS
 |--4--4-4-4--4-4--4-4-4-4--2--2-2-2--2-2--2-2-2-2-----------------------------------------|
 |--4--4-4-4--4-4--4-4-4-4--2--2-2-2--2-2--2-2-2-2-----------------------------------------|
 |--4--4-4-4--4-4--4-4-4-4--2--2-2-2--2-2--2-2-2-2-----------------------------------------|
 |--6--6-6-6--6-6--6-6-6-6--4--4-4-4--4-4--4-4-4-4-----------------------------------------|
 |-----------------------------------------------------------------------------------------|
 |-----------------------------------------------------------------------------------------|


010 - XXX CAN OF THIS######################################################################
EADGBE

VERSE
 |-----------------------------------------------------------------------------------------|
 |-----------------------------------------------------------------------------------------|
 |-----------------------------------------------------------------------------------------|
 |------------------9--9-9-9-9-9-9-11-11111111111------------------------------------------|
 |--9--9-9-9-9-9-9--7--7-7-7-7-7-7-9--9-9-9-9-9-9-9--9-9-9-9-9-9-8-------------------------|
 |--7--7-7-7-7-7-7--------------------------------7--7-7-7-7-7-7-6-------------------------|
      PMPMPMPMPMPM    PMPMPMPMPMPM   PMPMPMPMPMPM    PMPMPMPMPMPM(ONLY PM AFTER FIRST 2 RIFFS)
CHORUS
 |-----------------------------------------------------------------------------------------|
 |-----------------------------------------------------------------------------------------|
 |-----------------------------------------------------------------------------------------|
 |------------------13-13-13-13-13-13-13-9-9-9-9-9-9-9-11111111111111----------------------|
 |--9-9-9-9-9-9-9-9-11-11-11-11-11-11-11-7-7-7-7-7-7-7-9-9-9-9-9-9-9-----------------------|
 |--7-7-7-7-7-7-7-7------------------------------------------------------------------------|

 |-----------------------------------------------------------------------------------------|
 |-----------------------------------------------------------------------------------------|
 |-----------------------------------------------------------------------------------------|
 |-----------------------------------------------------------------------------------------|
 |--3(NATURAL HARMONICS) (THIS IS THE STRANGE SOUND AFTER ONE OF THE VERSUS)---------------|
 |--3--------------------------------------------------------------------------------------|


GUITAR 2 GOES BEHIND THIS AS... (THIS SOUNDS BETTER FOR THE CHORUS)
 |-----------------------------------------------------------------------------------------|
 |-----------------------------------------------------------------------------------------|
 |-----------------------------------------------------------------------------------------|
 |----------------------6-6-6-6-6-6-6------------------------------------------------------|
 |--2-2-2-2-2-2-2-2-----4-4-4-4-4-4-4----7-7-7-7-7-7-7-9-9-9-9-9-9-9-----------------------|
 |--0-0-0-0-0-0-0-0----------------------5-5-5-5-5-5-5-7-7-7-7-7-7-7-----------------------|


010 – BITCRUSHERRRR########################################################################
BEADF#B

VERSE
 |-----------------------------------------------------------------------------------------|
 |-----------------------------------------------------------------------------------------|
 |-----------------------------------------------------------------------------------------|
 |-----------------------------------------------------------------------------------------|
 |--2-2-2--4-3~~~~~------------------------------------------------------------------------|
 |--0-0-0--2-1~~~~~------------------------------------------------------------------------|
      PMPM
(DON’T REALLY PALM MUTE THESE, MORE OF A TAP THE STRING TWCE WITH THE EDGE OF YOUR PLECTRUM
IS WHAT I THOUGHT SOUNDED BEST AS IT’S NOT A FULL HIT)

BREAKDOWN
 |-----------------------------------------------------------------------------------------|
 |-----------------------------------------------------------------------------------------|
 |-----------------------------------------------------------------------------------------|
 |-----------------------------------------------------------------------------------------|
 |----------------3----------------------------3-------------------------------------------|
 |--0-0-2-0-0-2-0-1--(ON THE LAST FEW BARS LET 1 RING)-------------------------------------|
OUTRO
 |-----------------------------------------------------------------------------------------|
 |-----------------------------------------------------------------------------------------|
 |-----------------------------------------------------------------------------------------|
 |-----------------------------------------------------------------------------------------|
 |--4-4-4-4-4-4-4-4-4-3~~~-----------------------------------------------------------------|
 |--2-2-2-2-2-2-2-2-2-1~~~-----------------------------------------------------------------|
     PMPMPMPMPMPMPMPM

010 - THIS IS THE MAD STYLE################################################################
BEADF#B

INTRO
 |--5--5-----------------------------------------------------------------------------------|
 |--6--6-6-6-------------------------------------------------------------------------------|
 |--7--7-6-6-------------------------------------------------------------------------------|
 |-----------------------------------------------------------------------------------------|
 |-----------------------------------------------------------------------------------------|
 |-----------------------------------------------------------------------------------------|

OVERLAPPING RIFF
 |-----------------------------------------------------------------------------------------|
 |-----------------------------------------------------------------------------------------|
 |-----------------------------------------------------------------------------------------|
 |--7--------------------------------------------------------------------------------------|
 |--5---6-6---5----------------------------------------------------------------------------|
 |----0-4-4-0-3-0--------------------------------------------------------------------------|

OUTRO
 |-----------------------------------------------------------------------------------------|
 |-----------------------------------------------------------------------------------------|
 |-----------------------------------------------------------------------------------------|
 |--7---7---7------------------------------------------------------------------------------|
 |--5---5---5--6~~~~~~/3-------------------------------------------------------------------|
 |----0---0----4~~~~~~/1-------------------------------------------------------------------|
     PM  PM   PM (REALLY LIGHT PALM MUTING TO ACHIEVE A RING AFTERWARDS)


010 - GOOD DAY#############################################################################
BEADF#B

INTRO SOLO
 |--3-4-7-12~~~~~~(TREM BAR)-14(B)-12-12---------------------------------------------------|
 |---------------------------12(B)-------12-13-13-12--12-----------------------------------|
 |---------------------------13(B)-----------------------11-9~~~~~~------------------------|
 |-----------------------------------------------------------------------------------------|
 |-----------------------------------------------------------------------------------------|
 |-----------------------------------------------------------------------------------------|

 |----0-2------11-12--17-17-17-17-17-16-17-19-19-19-19------------------------12--|v(UPSTROKE)
 |--4-----0-0--12-12-----------------------------------17-17~~~~~~~(TREM BAR)-12--|v(UPSTROKE)
 |--------------------------------------------------------------------------------|
 |--------------------------------------------------------------------------------|
 |--------------------------------------------------------------------------------|
 |--------------------------------------------------------------------------------|

CHOURUS RIFF
 |-----------------------------------------------------------------------------------------|
 |-----------------------------------------------------------------------------------------|
 |-----------------------------------------------------------------------------------------|
 |-----------------------------------------------------------------------------------------|
 |--2-2-2-2-6-6-6-6-7-7-7-9-9-9------2-2-2-2-6-6-6-7-7-7-4-4-4-----------------------------|
 |--0-0-0-0-4-4-4-4-5-5-5-7-7-7-(x4)-0-0-0-0-4-4-4-5-5-5-2-2-2-----------------------------|
     PMPM     PMPM   PMPM              PMPM   PMPM

VERSE 2
 |--12-------------------------------------------------------------------------------------|
 |--12---------XXXXXXXXXX(WITH WOW/WAH EFFECT)---------------------------------------------|
 |-------------XXXXXXXXXX------------------------------------------------------------------|
 |-----------------------------------------------------------------------------------------|
 |-----------------------------------------------------------------------------------------|
 |-----------------------------------------------------------------------------------------|


MID SOLO
 |--12-12-12-12-12-12-11~~~~~~~~~~(TREM BAR)----------------------------------7V(UPSTROKE)-|
 |---------------------------------12h11h12h11----------------7-7-7-0---0-0---7V-----------|
 |---------------------------------------------11-11-11-9h8h9---------3--------------------|
 |-----------------------------------------------------------------------------------------|
 |-----------------------------------------------------------------------------------------|
 |-----------------------------------------------------------------------------------------|

OUTRO RIFF ONE
 |-----------------------------------------------------------------------------------------|
 |-----------------------------------------------------------------------------------------|
 |-----------------------------------------------------------------------------------------|
 |--9-9-9-9--9-9-9-9-9-6-6-----------------------------------------------------------------|
 |--7-7-7-7--7-7-7-7-7-6-6-----------------------------------------------------------------|
 |-----------------------------------------------------------------------------------------|
     PMPM    PMPM PM

OUTRO RIFF TWO
 |-----------------------------------------------------------------------------------------|
 |-----------------------------------------------------------------------------------------|
 |-----------------------------------------------------------------------------------------|
 |-----------------------------------------------------------------------------------------|
 |--2-2-2-222-2-2-2-222-7---7/8------------------------------------------------------------|
 |--0-0-0-000-0-0-0-000-5-0-5/6------------------------------------------------------------|
      PMPMPMPMPMPMPMPMPM

010 – FLY HIGH#############################################################################
BEADF#B

INTRO AND VERSE RIFF
 |-----------------------------------------------------------------------------------------|
 |-----------------------------------------------------------------------------------------|
 |-----------------------------------------------------------------------------------------|
 |--5-5-5-5-5-5-5-5-5-5-5-5----------------------------------------------------------------|
 |--3-3-3-3-3-3-3-3-3-3-3-3-4-4-3-3-3-3-3-3-3-3-3-3-3-4-(ON LAST ONE PLAY 5 5 5 5 INSTEAD)-|
 |--------------------------2-2-1-1-1-1-1-1-1-1-1-1-1-2-------------------3-3-3-3----------|

CHORUS
 |-----------------------------------------------------------------------------------------|
 |-----------------------------------------------------------------------------------------|
 |-----------------------------------------------------------------------------------------|
 |--5-5-5-5-5-5-5---------------2-2-2-2-2-2-2----------------------------------------------|
 |--3-3-3-3-3-3-3-2-2-2-2-2-2-2-0-0-0-0-0-0-0-3-3-3-3-3-3-3--------------------------------|
 |----------------0-0-0-0-0-0-0---------------1-1-1-1-1-1-1--------------------------------|

BREAKDOWN PALM MUTE PART
 |-----------------------------------------------------------------------------------------|
 |-----------------------------------------------------------------------------------------|
 |-----------------------------------------------------------------------------------------|
 |-----------------------------------------------------------------------------------------|
 |--5-5-5-5-5-5-5-5-3-3-3-3-3-3-3-3--------------------------------------------------------|
 |--3-3-3-3-3-3-3-3-1-1-1-1-1-1-1-1--------------------------------------------------------|
    PMPMPM PMPMPM   PMPMPM  PMPMPM

 |-----------------------------------------------------------------------------------------|
 |-----------------------------------------------------------------------------------------|
 |-----------------------------------------------------------------------------------------|
 |--------6-6-6----------------------------------------------------------------------------|
 |--5-5-5-4-4-4-5-5-5-4-4-4----------------------------------------------------------------|
 |--3-3-3-4-4-4-3-3-3-2-2-2----------------------------------------------------------------|

BREAKDOWN WITH GUITAR AND LYRICS ‘IT’S ALL A WEIRD ASS PLACE… UP IN THE SKY IM CONTENT 
KEEP ON FLYING
 |--6---6---6---6---6-(UPSTROKES)----------------------------------------------------------|
 |--8---8---8---8---8----------------------------------------------------------------------|
 |--5---5---5---5---5----------------------------------------------------------------------|
 |-----------------------------------------------------------------------------------------|
 |-----------------------------------------------------------------------------------------|
 |-----------------------------------------------------------------------------------------|

LAST BAR OUTRO (CHORUS VARIATION)
 |-----------------------------------------------------------------------------------------|
 |-----------------------------------------------------------------------------------------|
 |-----------------------------------------------------------------------------------------|
 |--5-5-5-5-5-5-5-5-5-5-5-5-----------------------------5~~~~~~~~~~~~~~~~~~~~~~~~~~~~------|
 |--3-3-3-3-3-3-3-3-3-3-3-3-4-4-3-3-3-3-3-3-3-3-3-3-3-4-3~~~~~~~~~~~~~~~~~~~~~~~~~~~~------|
 |--------------------------2-2-1-1-1-1-1-1-1-1-1-1-1-2------------------------------------|


010 – NO FOOD, DRINK, OR SMOKING###########################################################
BEADF#B

 MAIN RIFF
 |-----------------------------------------------------------------------------------------|
 |-----------------------------------------------------------------------------------------|
 |-----------------------------------------------------------------------------------------|
 |-----------------------------------------------------------------------------------------|
 |-----------------------------------------------------------------------------------------|
 |--0-0--0-6-0-0-0-6-0-0-6-----------------------------------------------------------------|
    PMPMPMPMPMPMPMPMPMPMPM

 |-----------------------------------------------------------------------------------------|
 |-----------------------------------------------------------------------------------------|
 |-----------------------------------------------------------------------------------------|
 |-----------------------------------------------------------------------------------------|
 |---------8-------8-----8--2-2------------------------------------------------------------|
 |--0-0--0-6-0-0-0-6-0-0-6--0-0------------------------------------------------------------|


010 – R.D.M.C##############################################################################

MAIN RIFF
 |-----------------------------------------------------------------------------------------|
 |-----------------------------------------------------------------------------------------|
 |-----------------------------------------------------------------------------------------|
 |--9-9-9-7H8---7--------------------------------------------------------------------------|
 |--7-7-7-5H6---5--------------------------------------------------------------------------|
 |------------0----------------------------------------------------------------------------|

CHORUS
 |-----------------------------------------------------------------------------------------|
 |-----------------------------------------------------------------------------------------|
 |-----------------------------------------------------------------------------------------|
 |--2-2-2-2-2--7-7-7-7-7-------------------------------------------------------------------|
 |--2-2-2-2-2--7-7-7-7-7-------------------------------------------------------------------|
 |--0-0-0-0-0--5-5-5-5-5-------------------------------------------------------------------|

POST CHORUS RIFF
 |-----------------------------------------------------------------------------------------|
 |-----------------------------------------------------------------------------------------|
 |-----------------------------------------------------------------------------------------|
 |--6-6-6-6-6-6-6------6-6-6-6-6-----------------------------------------------------------|
 |--4-4-4-4-4-4-4------4-4-4-4-4-----------------------------------------------------------|
 |-----------------------------------------------------------------------------------------|
      PMPMPMPMPMPM

MID RIFF
 |-----------------------------------------------------------------------------------------|
 |-----------------------------------------------------------------------------------------|
 |-----------------------------------------------------------------------------------------|
 |-----------------------------------------------------------------------------------------|
 |------6-7--------------------------------------------------------------------------------|
 |--0-0-4/5--------------------------------------------------------------------------------|

 |-----------------------------------------------------------------------------------------|
 |-----------------------------------------------------------------------------------------|
 |-----------------------------------------------------------------------------------------|
 |-------------------------(WITH MAIN RIFF IN BACKGROUND)----------------------------------|
 |----------------6-7----------------------------------------------------------------------|
 |--0-0-0-0-0-0-0-4/5----------------------------------------------------------------------|

OUTRO RIFF
 |-----------------------------------------------------------------------------------------|
 |-----------------------------------------------------------------------------------------|
 |-----------------------------------------------------------------------------------------|
 |------------6-6-6-6-6-6------------------------------------------------------------------|
 |--2-2-2-2-2-4-4-4-4-4-4-7-7-7-7-7-9-9-9-9-9-9--------------------------------------------|
 |--0-0-0-0-0-------------5-5-5-5-5-7-7-7-7-7-7--------------------------------------------|

THANK YOU…

X





Comments


Popular Mad Capsule Markets tabs & chords
Be Silent Fucking System Bass Tabs
Come Bass Tabs
Good Day 1 Bass Tabs
Kumo Bass Tabs
Midi Surf 1 Bass Tabs
All The Time In Sunny Beach Chords
Bomb Idea Tabs
Happy Ride Tabs
Island Tabs
Midi Surf 1 Tabs


Song lyrics



↑ Back to top | Tablatures and chords are parodies/interpretations of the original songs. You may use it for private study, scholarship, research or language learning purposes only
© 2014 AZChords.com Contact us | Privacy policy | DMCA | Add/correct tabs | Request tabs | Top 50 tabs