» » »

Parental Advisory Tabs (ver.1)

Artists:  A B C D E F G H I J K L M N O P Q R S T U V W X Y Z # 

Parental Advisory Tabs (ver.1)

Madcap
Rating:
0/5 (0 votes)

Hard to play? Try these video lessons and learn fast.
                Intro/Outro:

e |------------------------------------------|
B |------------------------------------------|
G |------------------------------------------|
D |------------------------------------------|
A |-5-5-5-5--3-2-0-2-------------------------|
E |-3-3-3-3----------------------------------|

End Intro: *=Play 8x

e |------------------------------------------|
B |------------------------------------------|
G |-*--*-------------------------------------|
D |-5--7-------------------------------------|
A |-3--5-------------------------------------|
E |------------------------------------------|

End Outro: *=Play 8x #=Play 16x

e |------------------------------------------|
B |------------------------------------------|
G |-*--*--#----------------------------------|
D |-5--7--12---------------------------------|
A |-3--5--10---------------------------------|
E |------------------------------------------|

Riff 1: I couldn't tab out the lead guitar. sorry ...

e |------------------------------------------|
B |------------------------------------------|
G |------------------------------------------|
D |----5-----7-----5-------------------------|
A |-5--3--7--5--5--3--5----------------------|
E |-3-----5-----3-----7----------------------|

Riff 2: #=Play 4x *=Play 8x 

e |------------------------------------------|
B |------------------------------------------|
G |-#--#--#--#--#--#--*----------------------|
D |----5-----7-----5-------------------------|
A |-5--3--7--5--5--3--5----------------------|
E |-3-----5-----3-----7----------------------|

Chorus: *=Play 8x

e |------------------------------------------|
B |------------------------------------------|
G |------------*--------------*--*--*--------|
D |------------------------------5--7--------|
A |-5--(slide)-7---5--(slide)-7--3--5--------|
E |-3----------5---3----------5--------------|

ORDER:
Intro (4x)
End Intro
Riff 1 (4x)
Riff 2 (2x)
Chorus (4x)
Riff 1 (2x)
Riff 2 (4x)
Chorus (4x)
Solo - Play Riff 2 (4x)
Chorus (4x)
Outro (4x)
End Outro
            
Hard to play? Try these video lessons and learn fast. | Correct




comments powered by Disqus
↑ Back to top | Tablatures and chords are parodies/interpretations of the original songs. You may use it for private study, scholarship, research or language learning purposes only