» » »

Madcap, In My Head Bass tabs (ver.1)

Artists:  A B C D E F G H I J K L M N O P Q R S T U V W X Y Z # 

In My Head Bass tabs (ver.1)

Madcap Tabs
 Rating:
4/5 (4 votes)
In My Head lessons Tabs too difficult? Try these video lessons and learn fast
                ----------------------------------------------------------------------------
----------------------------------------------------------------------------


Tuning: Standard

Intro

G|-------------------| (X7) 
D|-----------------7-|
A|000000000000000-7--|
E|---------------9---|

G|-----------|
D|-----------|
A|7777-4-0-2-|
E|-----------|

Verse 

G|------------------------| (X2)
D|------------------------|
A|77777-77777-44444-22222-|
E|------------------------|

G|----------------------------------------------|
D|-----6-4--------------------------------------|
A|77777---7-44444-22222-77777-77777-44444-22222-|
E|----------------------------------------------|

Pre-Chorus

G|--------------------------------------|
D|--------------------------------------|
A|4444-0-22-4444-0-22-0000-4-22-7-6-4-2-|
E|--------------------------------------|

Chorus

G|------------------------|
D|------------------------| (X3)
A|77777-77777-44444-22222-|
E|------------------------|

Verse

G|------------------------| (X2)
D|------------------------|
A|77777-77777-44444-22222-|
E|------------------------|

G|----------------------------------------------|
D|-----6-4--------------------------------------|
A|77777---7-44444-22222-77777-77777-44444-22222-|
E|----------------------------------------------|

Pre-Chorus

G|--------------------------------------|
D|--------------------------------------|
A|4444-0-22-4444-0-22-0000-4-22-7-6-4-2-|
E|--------------------------------------|

Chorus

G|------------------------|
D|------------------------| (X3)
A|77777-77777-44444-22222-|
E|------------------------|

Bridge

G|----------------------------------------------------------------|
D|----------------------------------------------------------------|
A|0~4~2~7~0~4~2~7-00000-44444-22222-77777-00000-44444-22222-77777-|
E|----------------------------------------------------------------|

G|------------|
D|------------|
A|00000-22222-|
E|------------|

Chorus/Outro

G|------------------------|
D|------------------------| (X4)
A|77777-77777-44444-22222-|
E|------------------------|


| /  slide up
| \  slide down
| h  hammer-on
| p  pull-off
| ~  vibrato
| +  harmonic
| x  Mute note
============================================================================
            
Submit corrections

comments powered by Disqus
↑ Back to top | Madcap Bass for In My Head. Lyrics for acoustic guitar and electric guitar. Tablatures and chords are parodies/interpretations of the original songs. You may use it for private study, scholarship, research or language learning purposes only