» » »

Madcap, Hometown Bass tabs (ver.1)

Artists:  A B C D E F G H I J K L M N O P Q R S T U V W X Y Z # 

Hometown Bass tabs (ver.1)

Madcap Tabs
Rating:
0/5 (0 votes)
Hard to play? Try these video lessons and learn fast.
                Intro
G-----------------------
D---333-----------------
A-33---3>---333---------
E---------33---33-3-33--

G--------------------------
D--------------------------
A--------------333---------
E-1012-11012-33---33-3-33--

Verse
G----------------------
D----------------------
A-3--------333---------
E--------33---33-3-33--

G-----------
D-----------
A-----------
E--1>---3>--

Pre-chorus
G---------------
D---------------
A-3>--3>--3>----
E---3>--1>--3>--

Chorus
G-------------------
D-------------------
A-33----33----33----
E---1-11--1-11--3>--

Verse
G--------------
D---532--------
A-3>------532--
E-------3>-----

G----------
D----------
A----------
E--1>--3>--

Pre-chorus
Chorus

Solo
G----------------
D----------------
A--3>----0>------
E------------3>--

Pre-chorus
Chorus

Outro
G---------
D---------
A---------
E---3-----
            

comments powered by Disqus
↑ Back to top | Madcap Bass for Hometown. Lyrics for acoustic guitar and electric guitar. Tablatures and chords are parodies/interpretations of the original songs. You may use it for private study, scholarship, research or language learning purposes only