» » »

Madcap, Heaven Or Hell Bass tabs (ver.1)

Artists:  A B C D E F G H I J K L M N O P Q R S T U V W X Y Z # 

Heaven Or Hell Bass tabs (ver.1)

Madcap Tabs
Rating:
0/5 (0 votes)
Heaven Or Hell lessons Tabs too difficult? Try these video lessons and learn fast
                Pre-Verse
G------------------
D------------------
A----3-----7--5--3-
E-3-----3----------

Verse
G---------------------------
D---------------------------
A----3>20----7>52-3>20-3>-55
E-3>------3>----------------

Chorus
G------------------------------------
D---------------------775544--775544-
A----3>-5>-3>----3>-55------55-------
E-3>----------3>---------------------

Pre-verse
Verse
Chorus

Solo
G-------------------
D-------------------
A-3>--5>--3>--53235-
E-------------------

Chorus

Outro
G-----------
D-----------
A-532355----
E--------3--
            
Submit corrections

comments powered by Disqus
↑ Back to top | Madcap Bass for Heaven Or Hell. Lyrics for acoustic guitar and electric guitar. Tablatures and chords are parodies/interpretations of the original songs. You may use it for private study, scholarship, research or language learning purposes only