» » »

Madcap, Downtown Tabs (ver.1)

Artists:  A B C D E F G H I J K L M N O P Q R S T U V W X Y Z # 

Downtown Tabs (ver.1)

Madcap Tabs
 Rating:
4/5 (4 votes)
Downtown lessons Tabs too difficult? Try these video lessons and learn fast
                madcap
downtown
stand your ground

Intro/chorus/outro
----------------------7777----------------------------------------
----------------------7777---5555----7777------5555---------
----------------------5555---5555----7777------5555---------
LowE-------------------------3333----5555------3333---------

Verse

--------55555555-------------------------------------------------
--------55555555---55555555----77777777---------55------
--------33333333---55555555----77777777---------55------
lowE---------------33333333----55555555---------33------

----------55555555-------------------------------999999999--
----------55555555---55555555---77777777--3--5---999999999--
----------33333333---55555555---77777777--3--5---777777777--
lowE-----------------33333333---55555555--1--3--------------

bridge,

this is the bass part for guitar
------------------22222222----------------44444444-----------
-------22222222---00000000---22222222-----22222222-------------
lowE---00000000--------------00000000---------------------

order

intro
verse
chorus
verse
bridge
outro
            
Submit corrections

comments powered by Disqus
↑ Back to top | Madcap Tabs for Downtown. Lyrics for acoustic guitar and electric guitar. Tablatures and chords are parodies/interpretations of the original songs. You may use it for private study, scholarship, research or language learning purposes only