» » »

Madcap, Bright Lights, Big City Bass tabs (ver.1)

Artists:  A B C D E F G H I J K L M N O P Q R S T U V W X Y Z # 

Bright Lights, Big City Bass tabs (ver.1)

Madcap Tabs
 Rating:
4/5 (4 votes)
Bright Lights, Big City lessons Tabs too difficult? Try these video lessons and learn fast
1
                Written By Madcap

Intro 
G----------------
D----------------
A-7>-------------
E--------5>--7>--

G------------------------
D------------------------
A-7------------4---------
E--7-54-0>-54-5-55-777-54

G----------------
D----------------
A-7>-----------7>
E-----5>---7>----

Verse
G----------------
D----------------
A-------4-------- 2x
E-0>--55-5--7>---

G-------------------
D-------------------
A-7>---------------7
E-----5>/9999\7777--

Pre-chorus
G-----------
D-----------
A-----------
E----9------

Chorus
G-------------------
D-------------------
A--77-7------------- 3x
E------7--5>--------

G-------------------
D-------------------
A-------------------
E---9------7--------

During Guitar Solo
G-------------------
D-------------------
A-7>---------------- 4x
E--------5>----7>---

Pre-chorus 2
G-------------------
D-------------------
A---------7-7-7-----
E-5>--7>--------9---

Outro
G------------
D------------
A-----7------
E------------
            
Submit corrections

comments powered by Disqus
↑ Back to top | Madcap Bass for Bright Lights, Big City. Lyrics for acoustic guitar and electric guitar. 1 Tablatures and chords are parodies/interpretations of the original songs. You may use it for private study, scholarship, research or language learning purposes only