» » »

Without You Bass tabs (ver.1)

Artists:  A B C D E F G H I J K L M N O P Q R S T U V W X Y Z # 

Without You Bass tabs (ver.1)

Mad Caddies
Rating:
0/5 (0 votes)

Hard to play? Try these video lessons and learn fast.
                Mad Caddies
Without you

this is how i think it goes

MAIN RIFF( and pretty much the whole song)
G---------------------|------------------------|---------------------------|
D---------------------|------4-----------------|---------------------------|
A---1-4--1--1-44444-1-|-1--4---7-4---6--6---66-|4--4----1-4--1--1--44444-1-|
E--2----2--2----------|2-----------4---4--4----|--4--6\2----2--2-----------|


FILL
play this sometimes at the end of the third bar

G-----------------------|
D-----------------------|
A---1-4--1--1h2-44444-1-|
E--2----2--2------------|

Breakdown
play before the break

G----------------|
D----------------|
A----2---------4-|
E--2-----2---4---|
(let all notes ring)

fin
            
Hard to play? Try these video lessons and learn fast. | Correct




comments powered by Disqus
↑ Back to top | Tablatures and chords are parodies/interpretations of the original songs. You may use it for private study, scholarship, research or language learning purposes only