» » »

Mad Caddies, State Of Mind Bass tabs (ver.1)

Artists:  A B C D E F G H I J K L M N O P Q R S T U V W X Y Z # 

State Of Mind Bass tabs (ver.1)

Mad Caddies Tabs
Rating:
5/5 (1 vote)
State Of Mind lessons Tabs too difficult? Try these video lessons and learn fast
                ARTIST - MAD CADDIES
SONG - STATE OF MIND
ALBUM - KEEP IT GOING

Pretty easy song, but also pretty fun

Tuning - Standard: EADG

Key
/ = Slide Down
~ = Let ring

____________________________________________________________

Rest for 8 secs

INTRO

|---------|
|---------|
|---------|
|--4-6-7--|

VERSE

|--------------------------------------------------|
|--------------------------------------------------|
|------------------------4-------------------------|  
|--4--4--4---2-4--4--2-----2--2--2---2-4--4--4--2--|

|--------------------------------------------------|
|--------------------------------------------------|
|------------------------4-------------------------|  
|--4--4--4---2-4--4--2-----2--2--2---2-4--4--4--2--|


|-------------------------------------------------|
|-------------------------------------------------|
|------------------------4------------------------|  
|--4--4--4---2-4--4--2-----2--2--2---2-4--4--4-4--|

PRE CHORUS

|-------------------------------------------------------|
|-------------------------------------------------------|
|--2--2--2--2-4--------------------6-6-6-6-------6-6-4--|
|---------------2--2--2--2-2-4--4----------4---4--------|

|------------------------------------------------------|
|------------------------------------------------------|
|--2--2--2--2-4--------------6-6--6-6-6--6--6--6-4--2--|
|---------------2--2--2--2-2---------------------------|

CHORUS

|----------------------------------------------------------------|
|------------------------4-4---4---------------------------------|
|--------6-6---6--2---2------2----------4-4---4--------6-6----6--|
|--4---4-----4--------------------2---2-----2----4---4-----4-----|

|---------------------------------------------------------------|
|------------------------4-4---4--------------------------------|
|--------6-6---6--2---2------2----------4-4---4--------6-6-6-6/-|
|--4---4-----4--------------------2---2-----2----4---4----------|

VERSE 2

**Rest another 8 seconds**

|---------------------------------------------------|
|---------------------------------------------------|
|--------------------------4------------------------|  
|--2-4--4--4---2-4--4--2-----2--2--2---2-4--4--4-4--|

PRE CHORUS

|---------------------------------------------------------|
|---------------------------------------------------------|
|--2--2--2--2-4--------------------6-6-6-6-------6-6-4-4--|
|---------------2--2--2--2-2-4--4----------4---4----------|

|------------------------------------------------------|
|------------------------------------------------------|
|--2--2--2--2-4--------------6-6--6-6-6--6--6--6-4--2--|
|---------------2--2--2--2-2---------------------------|

CHORUS

|----------------------------------------------------------------|
|------------------------4-4---4---------------------------------|
|--------6-6---6--2---2------2----------4-4---4--------6-6----6--|
|--4---4-----4--------------------2---2-----2----4---4-----4-----|

|---------------------------------------------------------------|
|------------------------4-4---4--------------------------------|
|--------6-6---6--2---2------2----------4-4---4--------6-6-6-6--|
|--4---4-----4--------------------2---2-----2----4---4----------|

Bridge

|---------------------------------------|
|---------------------------------------|
|---------------------------------------|
|--4~~~~~~----------2~~~~~~--4~~~~~~----|


|---------------------------------------|
|---------------------------------------|
|---------------------------------------|
|--4~~~~~~----------2~~~~~~--4~~~~~444--|

PRE CHORUS

|---------------------------------------------------------|
|---------------------------------------------------------|
|--2--2--2--2-4--------------------6-6-6-6-------6-6-4-4--|
|---------------2--2--2--2-2-4--4----------4---4----------|

|------------------------------------------------------------|
|------------------------------------------------------------|
|--2--2--2--2-4--------------6--6-6--4--4-4--2--2-2--1--1-1--|
|---------------2--2--2--2-2---------------------------------|

CHORUS

|----------------------------------------------------------------|
|------------------------4-4---4---------------------------------|
|--------6-6---6--2---2------2----------4-4---4--------6-6----6--|
|--4---4-----4--------------------2---2-----2----4---4-----4-----|

|---------------------------------------------------------------|
|------------------------4-4---4--------------------------------|
|--------6-6---6--2---2------2----------4-4---4--------6-6-6-6--|
|--4---4-----4--------------------2---2-----2----4---4----------|

|----------------------------------------------------------------|
|------------------------4-4---4---------------------------------|
|--------6-6---6--2---2------2----------4-4---4--------6-6----6--|
|--4---4-----4--------------------2---2-----2----4---4-----4-----|

|---------------------------------------------------------------|
|------------------------4-4---4--------------------------------|
|--------6-6---6--2---2------2----------4-4---4--------6-6-6-6--|
|--4---4-----4--------------------2---2-----2----4---4----------|

OUTRO

|--------------------------------------------------|
|--------------------------------------------------|
|------------------------4-------------------------|  
|--4--4--4---2-4--4--2-----2--2--2---2-4--4--4--2--|

|--------------------------------------------------|
|--------------------------------------------------|
|------------------------4-------------------------|  
|--4--4--4---2-4--4--2-----2--2--2---2-4--4--4--2--|


|--------------------------------------------------|
|--------------------------------------------------|
|------------------------4-------------------------|  
|--4--4--4---2-4--4--2-----2--2--2---2-4--4--4--2--|

|-------------------------------------------------|
|-------------------------------------------------|
|------------------------4------------------------|  
|--4--4--4---2-4--4--2-----2--2--2---2-4~~~~~~~~--|

END

First tab, hope you like :) Buzz
            

comments powered by Disqus
↑ Back to top | Mad Caddies Bass for State Of Mind. Lyrics for acoustic guitar and electric guitar. Tablatures and chords are parodies/interpretations of the original songs. You may use it for private study, scholarship, research or language learning purposes only