>
 >
Road Rash 2

Road Rash 2 Bass Tabs

Mad Caddies - Road Rash 2 chords, tabs, tablatures, lyrics

Guitar lessons | Add/correct | Request | Top 50 tabs Artists:  A B C D E F G H I J K L M N O P Q R S T U V W X Y Z 0-9

Road Rash 2 Bass Tabs – Mad Caddies

CD, Sheet music, Poster

Do you like Road Rash 2? Share with your friends now
Bass TabsBass Tabs v2Bass Tabs v3ChordsDrum TabsTabsUkulele
Intro
G---------|-----------|---------|----------------|
D---------|-----------|--3----- |--3-3-333-3-3---|    
A-----0-- |--5----1---|------3--|----------------|
E--1------|-----------|---------|----------------| x 2 

Chorus
G-------------------|-----------------|-----------------|-------------------|
D-------------------|-----------------|--3-----3----2---|--3-----3----2-----|x2
A--3--3--3--3-33----|--1--1--1--1-11--|-----3----3------|----3-----3--------|
E-------------------|-----------------|-----------------|-------------------|

G-----------------|---------------|--------------|------------------|
D-----------------|---------------|--------------|------------------|
A---5------5------|-----7-----7---|-5------5-----|-----5-----5------|
E-------5------5--|--5-----5------|-----5------5-|--3-----3---------|

Veres
G-------------------------------|---------------|
D-------------------------------|---------------|
A--------3-33---5-55------------|-3-33----3-1-0-|
Eó1-11------------------6-66----|---------------|

Riff 1
G---------------|---------------|---------------|--------------|
D------------2--|--0---------3--|-3---------5---|--3----3------|
A-----3--0------|-----0--1------|-----3--3------|-----3----3---|
E--1------------|---------------|---------------|--------------|

G---------------|---------------|----------------|-------------------|
D------------2--|--0---------3--|-3---------5----|--3-3-333-3-3------|
A-----3--0------|-----0--1------|-----3--3-------|-------------------|
E--1------------|---------------|----------------|-------------------|

Chorus

Veres 

Riff 2
G-------------------------|---------------------------|
D-------------------------|---3-3-3-------3-3-3-------|
A-----0---5-5-5---1-1-1---|---------3-3-3-------3-3-3-|
E--1----------------------|---------------------------|

G------------------------------|----------------------------|
D---------------------------- -|---3-3-3----------3-----2---|
A---------0-0-0--5-5-5---------|---------3-3-3--------------|
E--1-1-1----------------6-6-6--|----------------------------|

Outtro
G---------------------|--------------------------|
D---------------------|--------------------------|
A--5----5-----7-7---5-|---5-----------7-----7----|
E----5---5-----5------|--5------5-5--------5-----|

G----------------------------|---------------------------|
D----------------------------|---------------------------|
A-----3-----3--3-----3-----1-|----1----0-0-0-0--3-3-3-3--|
E--1------1--------3-----3---|---1-1---------------------|

G----------------------|----------------------|
D---3--3---------------|----------------------|
A----3--3-----7---7-5--|---5-4---3----3-------|
E-----------5----5-----|----5----------3----3-|

G-----------------------|----------------------|
D-----------------------|----------------------|
A--1-1--2-2--3-3-3--4---|-5-----5-----3--------|
E-----------------------|------------3-----3---|

G-----------------------|
D-----------------------|
A-----3-----------------|
E--1------1---1-1--1----|





Comments


Popular Mad Caddies tabs & chords
Contraband 1 Bass Tabs
Polyester Khakis 1 Bass Tabs
Contraband Drum Tabs
Easy Cheese Tabs
Freak Of Nature Tabs
Leavin' Tabs
Macho Nachos Tabs
Preppy Girl 1 Tabs
Souls For Sale Ukulele
Without You Ukulele


Song lyrics



↑ Back to top | Tablatures and chords are parodies/interpretations of the original songs. You may use it for private study, scholarship, research or language learning purposes only
© 2014 AZChords.com Contact us | Privacy policy | DMCA | Add/correct tabs | Request tabs | Top 50 tabs