» » »

Mad Caddies, Road Rash Bass tabs (ver.1)

Artists:  A B C D E F G H I J K L M N O P Q R S T U V W X Y Z # 

Road Rash Bass tabs (ver.1)

Mad Caddies Tabs
 Rating:
4.4/5 (7 votes)
Road Rash lessons Tabs too difficult? Try these video lessons and learn fast
1
                Mad Caddies : Road Rash {Bass Tab}
=======================

Intro
G|---2---3---5-2>----2---3---5-----|
D|-3-------3-------3-------3---3>--|
A|-----5---------------5-----------|
E|---------------------------------|

Verse 1                   X2
G|-------------------------|
D|-------3---3----3---3----|
A|-7>-5>---3---3-3--3---3-3|
E|-------------------------|

Verse 2 
G|---------------------------------|
D|---------------------------------|
A|-5---5-----5---5-5---5-----5---5-|
E|---5---5-7---7-----5---5-3---3---|

Chorus  
G|-------------------|
D|-------------------|
A|-8>-3>-5>-1>-8>-3>-|
E|-------------------|
                          X2
G|-------------------------|
D|-------------------3>-3>-|
A|-8>-3>-5>-1>-8>-3>-------|
E|-------------------------|

Verse 1 - Verse 2 - Chorus

Ending
G|---------------------------------|----------------------------|
D|---------------------------------|----------------------------|
A|-5---5-----5---5-5---5-----7---7-|---------3---3---5---5---7>-|
E|---5---5-7---7-----5---5-5---5---|-1-5-1-5---3---3---5---5----|

G|---------------------------------|----------------------------------|
D|---------------------------------|----------------------------------|
A|-8---8-----7---7-5---5-----8---8-|-------8>-5>-------8>-7/8---8\7/8-|
E|---8---8-5---5-----5---5-6---6---|-5>-8>-------5>-8>----------------|



=======================================================================
            
Submit corrections

comments powered by Disqus
↑ Back to top | Mad Caddies Bass for Road Rash. Lyrics for acoustic guitar and electric guitar. 1 Tablatures and chords are parodies/interpretations of the original songs. You may use it for private study, scholarship, research or language learning purposes only