» » »

Road Rash Bass tabs (ver.3)

Artists:  A B C D E F G H I J K L M N O P Q R S T U V W X Y Z # 

Road Rash Bass tabs (ver.3)

Mad Caddies
Rating:
0/5 (0 votes)

Hard to play? Try these video lessons and learn fast.
                
* = let note ring

Intro
G----------------------------------------
D----0----3---3*---------0---3--3-3-3-3-3                
A--0---1*---3----------0---1--3----------               
E-1------------------1-------------------
Verse
G---------------------------------------
D------------------3--3---2-3--3--2-----  X 2
A-3-3-3-3-1-1-1-1----3--3----3--3-------
E---------------------------------------
Chorus 1
G-------------------------------
D-------------------------------
A-5--5------7--7--5--5------5--5
E---5--5--5--5------5--5--3--3--

Chorus 2
G-------------------------------
D-------------------------------
A------3333-5555------3333310---
E-1111-----------8888-----------

Chorus 3                  1st time  2nd time
G-----------------------|----------|--------
D------2-0-----3-3----5-|3--3------|-3-3-3-3   x 2
A---3-0---0-1-----3-3---|-3--3-----|--------
E-1---------------------|----------|--------

Verse
Chorus 1 
Chorus 2 

Chorus 4                        1st time         2nd time
G------------------------|-------------------|----------------
D------------------------|3333------3333-----|-3333------3*-2*    x 2
A-------3*-----5555------|-----3333------3333|------3333------
E-1*----------------8888-|-------------------|----------------

Ending
G---------------------------------------------------------
D---------------------------------------------------------
A-5--5----7--7--5--5----7--7--3--3--3--3--1--1---0000-3333
E--5--5--5--5----5--5--5--5--1--1----3--3--1--1-----------

G-------------------------------------------------------------------
D-3--3--------------------------------------------------------------
A--3--3----7--7--5--5--4--3--3----11--22--33-4--5*-5--3------3------
E--------5--5------5--------3--3---------------------3--3--1---1-111


This should be right...I think. It's better than the one on here at the moment anyways.
            
Hard to play? Try these video lessons and learn fast. | Correct




comments powered by Disqus
↑ Back to top | Tablatures and chords are parodies/interpretations of the original songs. You may use it for private study, scholarship, research or language learning purposes only