» » »

Riot Tabs (ver.1)

Artists:  A B C D E F G H I J K L M N O P Q R S T U V W X Y Z # 

Riot Tabs (ver.1)

Mad Caddies
Rating:
0/5 (0 votes)

Hard to play? Try these video lessons and learn fast.
                
Riot – Mad Caddies 


Intro 

/=slide 

E|------------------------------------------------------> 

B|------------------------------------------------------> 

G|----------------------------------------8---8---8-----> 

D|----------------------------------------8-8-8-8-8-8---> 

A|---------1------------3-331-------1-----6-8-6-8-6-8---> 

E|-/33-133---313-33-133-------3-133---313---6---6---6---> 

  

E>------------------------------------------------------------------| 

B>------------------------------------------------------------------| 

G>----------------------------------------8---8---8---8----8---8----| 

D>----------------------------------------8-8-8-8-8-8-8-88-8-8-8-8--| 

A>---------1------------3-331-------1-----6-8-6-8-6-8-6-88-6-8-6-8--| 

E>--33-133---313-33-133-------3-133---313---6---6---6---66---6---6--| 

  

Verse 

Let all notes ring 

E|--------------------------| 

B|--------------------------| 

G|----8-----5------8-----5--| 

D|-5--8--8--5-3-5--8--8--5--| 

A|-5--6--8--3-3-5--6--8--3--| 

E|-3-----6----1-3-----6-----| 

  

Bridge 

*=play 7-8x palm muted 

E|-----------------------| 

B|----*-----*--*--*------| 

G|-*--3--*--3--8--7--55--| 

D|-3--3--3--3--8--7--55--| 

A|-3--1--3--1--6--5--33--| 

E|-1-----1---------------| 

  

Chorus 

*=play 6x 

E|-------------| 

B|----*-----*--| 

G|-*--8--*--5--| x2 

D|-5--8--8--5--| 

A|-5--6--8--3--| 

E|-3-----6-----| 

Then play first part of intro (without slide), verse, bridge, chorus. 

Play first part of intro then verse under solo. Sorry guys, again no solo. 

Final chorus is same notes as other choruses just strummed slowly and last note played 16x palm muted 

  

Outro 

  

E|---------------------| 

B|---------------------| 

G|--------------5-3----| 

D|--------------5-3-5--| 

A|--------1-----3-1-5--| 

E|-33-133---313-----3--|
            
Hard to play? Try these video lessons and learn fast. | Correct




comments powered by Disqus
↑ Back to top | Tablatures and chords are parodies/interpretations of the original songs. You may use it for private study, scholarship, research or language learning purposes only