» » »

Mad Caddies, Mary Melody Bass tabs (ver.1)

Artists:  A B C D E F G H I J K L M N O P Q R S T U V W X Y Z # 

Mary Melody Bass tabs (ver.1)

Mad Caddies Tabs
 Rating:
4.3/5 (6 votes)
Mary Melody lessons Tabs too difficult? Try these video lessons and learn fast
                Mad Caddies - mary melody


Intro
G-------------------------------------------------------------------------|
D-------------------------------------------------------------------------|
A---7------6------777--------------4--------------7-777-----7-777---------|
E--------------------------4~--------------2---7-------5-555-----7-777----|

Verse 1
G-------------------------------------------------------------------------|
D-------------------------4-----------------------------------------------|
A-7-7-76-6-67-7---4-4-4-4--4----7-777-----7-777---------------------------|
E--7-7--6-6--7-7-4-4---4-4--7-4------5-555-----7-777----------------------|
X2

Bridge
G-------------------------------------------------------------------------|
D-------------------------------------------------------------------------|
A--4-4-4-4---7-7-7~--7-5------4-4-4-4---7-7-------------------------------|
E-4-4---4-4-5-5----------7-5-4-4---4-4-5-5--7~~~--------------------------|

Chorus
G-------------------------------------------------------------------------|
D-------------------------------------------------------------------------|
A-7>------4>--3>-2>-7>------4>--3~--2~------------------------------------|
E-----4>----------------4>--------------0---------------------------------|

Verse 2
G-------------------------------------------------------------------------|
D-------------------------4-----------------------------------------------|
A-7-7-76-6-67-7---4-4-4-4--4----7-777-----7-777---------------------------|
E--7-7--6-6--7-7-4-4---4-4--7-4------5-555-----7-777----------------------|
X2

Bridge
G-------------------------------------------------------------------------|
D-------------------------------------------------------------------------|
A--4-4-4-4---7-7-7~--7-5------4-4-4-4---7-7-------------------------------|
E-4-4---4-4-5-5----------7-5-4-4---4-4-5-5--7~~~--------------------------|

Chorus
G-------------------------------------------------------------------------|
D-------------------------------------------------------------------------|
A-7>------4>--3>-2>-7>------4>--3~--2~--0~--2-2-2-2-2-2-------------------|
E-----4>----------------4>------------------------------------------------|

Outro
G-------------------------------------------------------------------------|
D-------------------------------------------------------------------------|
A-7-7-----4-4-3-3-2-2-2-2-7---444-333-------------------------------------|
E-----4-4-----------------------------------------------------------------|
X3

Last time
G-------------------------------------------------------------------------|
D-------------------------------------------------------------------------|
A-7-7-----4-4-3-3-2-2-2-0-------------------------------------------------|
E-----4-4-----------------2-0~~~------------------------------------------|
            
Submit corrections

comments powered by Disqus
↑ Back to top | Mad Caddies Bass for Mary Melody. Lyrics for acoustic guitar and electric guitar. Tablatures and chords are parodies/interpretations of the original songs. You may use it for private study, scholarship, research or language learning purposes only