» » »

Mad Caddies, Last Beath Bass tabs (ver.1)

Artists:  A B C D E F G H I J K L M N O P Q R S T U V W X Y Z # 

Last Beath Bass tabs (ver.1)

Mad Caddies Tabs
 Rating:
4/5 (4 votes)
Last Beath lessons Tabs too difficult? Try these video lessons and learn fast
1
                
Brass Intro

Intro
G|--------|--------|--------|--------|--------|--------|--------|--------|
D|--------|--------|--------|--------|--------|--------|--------|--------|
A|4-------|4------6|4-------|--------|--------|--------|--------|--------|
E|---4----|---4-7--|---4----|3--3----|4--4----|4--4--3-|2---2--4|~-------|
                                                        _________________ _________________
2x Verse                                               |          1st    | 2st             
G|--------|--------|--------|--------|--------|--------|--------|--------|--------|--------|
D|--------|--------|--------|--------|--------|--------|--------|--------|--------|--------|
A|4-------|4--7--6-|4-------|---6----|---6----|---4----|-------4|--------|-------4|-444-444|
E|---4----|--------|---4----|4-------|4-------|2-------|5---4---|--------|5-5-4-4-|--------|


Pre-Chorus
G|--------|--------|--------|--------|--------|--------|--------|--------|
D|--------|--------|--------|--------|--------|--------|--------|---66---|
A|--------|--------|--------|--------|--------|--------|--------|-----76-|
E|5-5-5-5-|5-5-5-4-|2-2-2-2-|2-2-2-4-|5-5-5-5-|5-5-5-4-|2-2-2-24|-------4|

Chorus
G|--------|--------|--------|--------|--------|--------|--------|--------|--------|
D|--------|--------|--------|--------|--------|--------|--------|--------|--------|
A|4-4-4-4-|0-0-2-2-|4-4-4-4-|0-0-----|4-4-4-4-|0-0-2-2-|--------|--------|--------|
E|--------|--------|--------|----0-0-|--------|--------|0-0-0-04|~------4|~-------|

Interlude
G|--------|--------|--------|--------|--------|--------|--------|--------|
D|--------|--------|--------|--------|--------|--------|--------|----6\--|
A|4-------|--------|--------|--------|--------|--------|--------|--------|
E|--------|--------|--------|--------|4--4----|4--4--3-|2---2-34|~-------|
                                                        _________________ _________________
2x Verse                                               |          1st    | 2st             
G|--------|--------|--------|--------|--------|--------|--------|--------|--------|--------|
D|--------|--------|--------|--------|--------|--------|--------|--------|--------|--------|
A|4-------|4--7--6-|4-------|---6----|---6----|---4----|-------4|--7-6---|-------4|-444-444|
E|---4----|--------|---4----|4-------|4-------|2-------|5---4---|------7-|5-5-4-4-|--------|

Pre-Chorus
G|--------|--------|--------|--------|--------|--------|--------|--------|
D|--------|--------|--------|--------|--------|--------|--------|---66---|
A|--------|--------|--------|--------|--------|--------|--------|-----76-|
E|5-5-5-5-|5-5-5-4-|2-2-2-2-|2-2-2-4-|5-5-5-5-|5-5-5-4-|2-2-2-24|-------4|
                                                        _________________ 
2x Chorus                                              |          1st    |
G|--------|--------|--------|--------|--------|--------|--------|--------|
D|--------|--------|--------|--------|--------|--------|--------|--------|
A|4-4-4-4-|0-0-2-2-|4-4-4-4-|0-0-----|4-4-4-4-|0-0-2-2-|--------|--------|
E|--------|--------|--------|----0-0-|--------|--------|0-0-0-0-|4-4-4-4-|
 _________________
| 2st             
|--------|--------|--------|
|2-2-22--|-------6|--6-6-6-|
|--------|---6----|--------|
|-------4|~-------|--------|

Outro
G|--------|--------|--------|--------|--------|--------|--------|--
D|--------|----2-2-|--------|--------|--------|--------|--------|--
A|4-4-4-4-|0-0-----|4-4-4-4-|0-0-2-2-|4-4-4-4-|0-0-----|4-4-4-4-|4-
E|--------|--------|--------|--------|--------|----0-0-|--------|--
            
Submit corrections

comments powered by Disqus
↑ Back to top | Mad Caddies Bass for Last Beath. Lyrics for acoustic guitar and electric guitar. 1 Tablatures and chords are parodies/interpretations of the original songs. You may use it for private study, scholarship, research or language learning purposes only