» » »

I'm So Alone Bass tabs (ver.2)

Artists:  A B C D E F G H I J K L M N O P Q R S T U V W X Y Z # 

I'm So Alone Bass tabs (ver.2)

Mad Caddies
Rating:
0/5 (0 votes)

Hard to play? Try these video lessons and learn fast.
                I'm So Alone
Mad Caddies

V.2

Basic thing for the beginning
play slow
G|-------------------------3-------------------------------------|
D|-----------3-------3-4-6---6-3----------1-------------3--------|
A|-----3-4-6---6-3-4----------------1-2-4---4-1----3--6---6-4-3--|
E|--\4----------------------------2--------------4---------------|
Fast part with horns
G--------------------------------------------------------|
D-------------------3-6----3-6---------------------------|
A----3-6-----3-6-4------4---------1-4----1-4----3-4-5-6--|
E-4-------4--------------------2------2-------4----------|
Fast part with vocals 
G--------------------------------------------------------------|
D-------------------3-6----3-6---------------------------------|
A----3-6-----3-6-4------4---------1-4----1-4----3-4-5-6-5-4-3--|
E-4-------4--------------------2------2-------4----------------|
Solos
G|--------------------------|
D|-6-6-3-----3-4-4-3--------|
A|-------4-4---------4-4----|
E|--------------------------|
Ending
G|---------------------------------|
D|---------------------------------|
A|---------4-4-4-4-----------------|
E|-4-4-4-4---------2-2-2-2-4-4-4-4-|
            
Hard to play? Try these video lessons and learn fast. | Correct




comments powered by Disqus
↑ Back to top | Tablatures and chords are parodies/interpretations of the original songs. You may use it for private study, scholarship, research or language learning purposes only