» » »

Destro Bass tabs (ver.1)

Artists:  A B C D E F G H I J K L M N O P Q R S T U V W X Y Z # 

Destro Bass tabs (ver.1)

Mad Caddies
Rating:
0/5 (0 votes)

Hard to play? Try these video lessons and learn fast.
                Intro

G:----------|--------|
D:----------|--------|
A:----------|--------|
E:-5-0-7\-7-|-5-0-2>-|

Verse

G:--------|-----------------|
D:--------|-----------------|
A:--------|-----------------|
E:-5-0-7>-|-5-0-2>-2-4-0>-2-|

Chorus

G:---------------------------------|
D:---------2-2-2-2---------4-4-4-4-|
A:-2-2-2-2---------2-2-2-2---------|
E:---------------------------------|

G:---------------------------------|
D:---------2-2-2-2-----------------|
A:-2-2-2-2-------------------------|
E:-----------------0-0-0-0-0-0-2-2-|

G:---------------------------------|
D:---------2-2-2-2---------4-4-4-4-|
A:-2-2-2-2---------2-2-2-2---------|
E:---------------------------------|

G:---------------------------------|
D:---------------------------------|
A:---------------------------------|
E:-0-0-0-0-0-0-0-0-2-2-2-2-2-2-2-2-|

Bridge

G:---------------------------------|
D:---------------------------------|
A:-----------------2-2-2-2---------|
E:-4-4-4-4-2-2-2-2---------0-0-2-2-|



G:-----------------------------------|
D:-------------------------2-2-4-4---|
A:---------2-2-2-2-4-4-4-4---------2-|
E:-4-4-4-4---------------------------|

Ending

G:-------------------------------------|
D:-------------------------------------|
A:-----------------------------7-6-4-2-|
E:-0-0-0-0-0-0-0-0-2-2-2-2-2-2---------|
            
Hard to play? Try these video lessons and learn fast. | Correct




comments powered by Disqus
↑ Back to top | Tablatures and chords are parodies/interpretations of the original songs. You may use it for private study, scholarship, research or language learning purposes only