» » »

Mad Caddies, Cup O' Tea Tabs (ver.1)

Artists:  A B C D E F G H I J K L M N O P Q R S T U V W X Y Z # 

Cup O' Tea Tabs (ver.1)

Mad Caddies Tabs
 Rating:
4/5 (4 votes)
Cup O' Tea lessons Tabs too difficult? Try these video lessons and learn fast
1
                Tuning: Standerd

guitar 1 - power chord bit (1st time around)

e|-4-5-0----4-2-0----------|
B|-------------------------|
G|-------------------------|
D|-------------------------|
A|-------------------------|
E|-------------------------|

guitar 2 - power chord bit (1st time around)

e|---------------------------|
B|---------------------------|
G|---------------------------|
D|-6-7-2-----6-4-2-----------|
A|-6-7-2-----6-4-2-----------|
E|-4-5-0-----4-2-0----------|

guitar 1 - ska bit (do twice then join in with guitar 2's ska bit)

e|------------4---------------------0--------|
B|--9---7---6---6------4------2---2---2------|
G|-9---7--6-------6---4-----2---2-------2----|
D|-------------------------------------------|
A|-------------------------------------------|
E|-------------------------------------------|

guitar 2 - ska bit

e|--------------------------------------------|
B|-9-9--7-6-6-6-6---4-4--6-2-2-2-2------------|
G|-9-9--7-6-6-6-6---4-4--6-2-2-2-2------------|
D|-9-9--7-6-6-6-6---4-4--6-2-2-2-2------------|
A|-7-7--5-4-4-4-4---2-2--4-0-0-0-0------------|
E|--------------------------------------------|

guitar 1&2 - transition bit

e|-------------------------------|
B|-2-2-2-2-----------------------|
G|-2-2-2-2---7-7-7--9-9-9--------|
D|-2-2-2-2---7-7-7--9-9-9--------|
A|-0-0-0-0---5-5-5--7-7-7--------|
E|-------------------------------|

guitar 1 - power chord bit (small difference)

e|-4-5-0---4-5-7-5-4-2-0---------|
B|-------------------------------|
G|-------------------------------|
D|-------------------------------|
A|-------------------------------|
E|-------------------------------|

guitar 2 - power chord bit (pretty much the same-2nd time around)

e|-----------------------------|
B|-----------------------------|
G|-----------------------------|
D|-6-7-2-----6-4-2-------------|
A|-6-7-2-----6-4-2-------------|
E|-4-5-0-----4-2-0-------------|

guitar 1 - ska bit (do twice then join in with guitar 2's ska bit)

e|------------4---------------------0----------|
B|--9---7---6---6------4------2---2---2--------|
G|-9---7--6-------6---4-----2---2-------2------|
D|---------------------------------------------|
A|---------------------------------------------|
E|---------------------------------------------|

guitar 2 - ska bit

e|---------------------------------------|
B|-9-9--7-6-6-6-6---4-4--6-2-2-2-2-------|
G|-9-9--7-6-6-6-6---4-4--6-2-2-2-2-------|
D|-9-9--7-6-6-6-6---4-4--6-2-2-2-2-------|
A|-7-7--5-4-4-4-4---2-2--4-0-0-0-0-------|
E|---------------------------------------|

guitar 1&2 - transition bit

e|-------------------------|
B|-2-2-2-2-----------------|
G|-2-2-2-2---7-7-7--9-9-9--|
D|-2-2-2-2---7-7-7--9-9-9--|
A|-0-0-0-0---5-5-5--7-7-7--|
E|-------------------------|

guitar 1 - power chord bit (final time, similar to second time)

e|-4-5-0---4-5-7-5-4-2-0------|
B|----------------------------|
G|----------------------------|
D|----------------------------|
A|----------------------------|
E|----------------------------|

guitar 2 - power chord bit

e|-----------------------|
B|-----------------------|
G|-----------------------|
D|-6-7-2-----6-4-2-------|
A|-6-7-2-----6-4-2-------|
E|-4-5-0-----4-2-0-------|

plz rate this tabs and feel free to email at
            
Submit corrections

comments powered by Disqus
↑ Back to top | Mad Caddies Tabs for Cup O' Tea. Lyrics for acoustic guitar and electric guitar. 1 Tablatures and chords are parodies/interpretations of the original songs. You may use it for private study, scholarship, research or language learning purposes only