» » »

Mad Caddies, Crew Cut Chuck Tabs (ver.1)

Artists:  A B C D E F G H I J K L M N O P Q R S T U V W X Y Z # 

Crew Cut Chuck Tabs (ver.1)

Mad Caddies Tabs
 Rating:
4/5 (4 votes)
Crew Cut Chuck lessons Tabs too difficult? Try these video lessons and learn fast
                Tuning: Sanderd

Verse

pm.............................................
e|--------*-----------------------------------------------|
B|--------*------5-----5-----5-----5-----5-----5----------|
G|--------*------5-----5-----5-----5-----5-----5----------|
D|--------*--5-x-x-------5-x-x-------5-x-x-------5--------|
A|----0-2-*--3-x-x-3-x-x-3-x-x-3-x-x-3-x-x-3-x-x-3---0-2--|
E|--3-----*--------3-x-x-------3-x-x-------3-x-x---3------|

Blue grass lead

e|------8-----8-----8--------------8-----8-----8----------------|
B|--8---8-8---8-8---8----------8---8-8---8-8---8----------------|
G|--7b9---7b9---7b9---7b9r7-5--7b9---7b9---7b9---7b9r7-5--------|
D|--------------------------------------------------------------|
A|--------------------------------------------------------------|
E|--------------------------------------------------------------|

contd   (play fast) 
                                
e|--8p5---5--------------------------------------------|
B|------8---8p5--5---5---------------------------5-----|
G|-------------8---7---7p5----55-----5h7-5---5h7-------|
D|------------------------5h7---5h7--------7-----------|
A|-----------------------------------------------------|
E|-----------------------------------------------------|

Chorus

Guitar 1               keep playing same thing

e|------*---------------------------------------------|
B|------*---------------------------------------------|
G|--5~--*--5-5-5-5--5----------5-5-5-5----------------|
D|--5~--*--5-5-5-5--5-3-3-3-3--5-5-5-5--5-5-5-5-------|
A|--3~--*--3-3-3-3--3-3-3-3-3--3-3-3-3--5-5-5-5-------|
E|------*-------------1-1-1-1-----------3-3-3-3-------|

Guitar 2  octaves

e|-------------------------------------------------|
B|-------------------------------------------------|
G|-----------------------------/9----10--9-7~------|
D|------------------------------x-----x--x-x-------|
A|-----------------------------/7-----8--7-5~------|
E|-------------------------------------------------|

Guitar 2 contd

e|--------------------------------------------------------|
B|--------------------------------------------------------|
G|-10---9--5----10---9--5----10---9--5---10----9--7~------|
D|--x---x--x-----x---x--x-----x---x--x----x----x--x-------|
A|--8---7--3-----8---7--3-----8---7--3----8----7--5~------|
E|--------------------------------------------------------|

Guitar 2 contd

e|------------------------------------------|
B|------------------------------------------|
G|--5~-----9--10-9-7--5~----9--10-9-12------|
D|--x------x---x-x-x--x-----x---x-x--x------|
A|--3~-----7---8-7-5--3~----7---8-7-10------|
E|------------------------------------------|

End                          "hey"

e|--------8p5---5-------------------|
B|------------8---8p5--5------------|
G|-------------------8---7h8---5----|
D|---------------------------7------|
A|---0-2----------------------------|
E|-3--------------------------------|

woteva - my address is
oh yea - PLZ rate this tab
            
Submit corrections

comments powered by Disqus
↑ Back to top | Mad Caddies Tabs for Crew Cut Chuck. Lyrics for acoustic guitar and electric guitar. Tablatures and chords are parodies/interpretations of the original songs. You may use it for private study, scholarship, research or language learning purposes only