» » »

Mad Caddies, Coyote Bass tabs (ver.1)

Artists:  A B C D E F G H I J K L M N O P Q R S T U V W X Y Z # 

Coyote Bass tabs (ver.1)

Mad Caddies Tabs
 Rating:
4/5 (4 votes)
Coyote lessons Tabs too difficult? Try these video lessons and learn fast
1
                -------------------------------------------------------------------------------
-------------------------------------------------------------------------------


Tuning:EADG
(A minor)

Intra
G|------------|---------------------------|----------------------------------|
D|--7---------|---------------7--5-8-7----|----------------------------------|
A|5---5--8-7--|---7---8-7---5----------8--|----------------------------------|
E|------------|-5---5---------------------|----------------------------------|


Choursa
G|------------|--------------|---------------|-----------------|-------------|
D|----7-----7-|--------------|---------------|-----7--5-8-7----|-------------|
A|5-8---5-8---|------7-----7-|-----7-----8-7-|-5-8----------8--|--5~---------|
E|------------|-5-8----5-8---|-5-8----5------|-----------------|-------------|


Versa						Varation
G|--------------------x2|-----------------------|a------|b--------|----------|
D|---7--7-------------x2|-----------------------|-88787-|-5-8-7---|----------|
A|5-8-----5--7h8p7h8--x2|-----7--7----7h8p7h8---|-------|-------8-|5~--------|
E|--------------------x2|-5-8------5------------|-------|---------|----------|


Outra
G|--------------|----------------|----------------|--------------------------|
D|--------------|--------------77|----------------|--------------------------|
A|5555555555555-|55555555555588--|----------------|---------------------77---|
E|--------------|----------------|5555555555555555|(0)555555555555555588-----|

G|----------------|-------------------|--------------|-----------------------|
D|----------------|-----------------77|--------------|-----------------------|
A|5555555555555555|(0)55555555555588--|--------------|-----------------77----|
E|----------------|-------------------|55555555555555|(0)55555555555588------|

G|----------------|----------------|----------------|------------------------|
D|----------------|--775577887755--|----------------|------------------------|
A|555555555555555-|55------------88|--77777777777777|--77557788775577--------|
E|----------------|----------------|55--------------|55----------------------|

G|----------------|-----------------|----------------|-----------------------|
D|--77777788775577|--775577887755---|----------------|-----------------------|
A|55--------------|55-------------88|--77777788775577|--77557788775577-------|
E|----------------|-----------------|55--------------|55---------------------|

G|-----------------|----------------|----------------|-----------------------|
D|-----------------|--775577887755--|----------------|-----------------------|
A|555555555555-12\5|55------------88|----------------|-------775588775577----|
E|-----------------|----------------|5555555555555555|(0)5588----------------|

G|---------------|--------------|----------------|----------|----------------|
D|--7777777777777|--7755778877--|----------------|7---------|----------------|
A|55-------------|55----------87|----------------|-8-7-5~---|----------------|
E|---------------|--------------|5555555555555555|----------|----------------|

***WHEW!! Hell of an outra. Fun song through and through. the song layout is simple for
the most part and not very difficult to figure out.
That being said the outra can be hectic at times. When learning the outra dont get too
far ahead of yourself.
All those A's at the start are 16ths and im showing all of them.
A solid song by the Caddies and it gives such a great feeling when playing it.***

If you liked this tab be sure to check out some of my others


Missionary's Downfall by: The planet smashers : 

Without You by: Mad Caddies : 

Thanks for listening and playing bass
DFTBA


| /  slide up
| \  slide down
| h  hammer-on
| p  pull-off
| ~  vibrato
| +  harmonic
| x  Mute note
===============================================================================
            
Submit corrections

comments powered by Disqus
↑ Back to top | Mad Caddies Bass for Coyote. Lyrics for acoustic guitar and electric guitar. 1 Tablatures and chords are parodies/interpretations of the original songs. You may use it for private study, scholarship, research or language learning purposes only