>
 >
B-Side

B-Side Guitar Tabs

Mad Caddies - B-Side chords, tabs, tablatures, lyrics

Guitar lessons | Add/correct | Request | Top 50 tabs Artists:  A B C D E F G H I J K L M N O P Q R S T U V W X Y Z 0-9

B-Side Guitar Tabs – Mad Caddies

CD, Sheet music, Poster

Do you like B-Side? Share with your friends now
Tabs
looks hard but it's only 3 basic riffs

INTRO      <1st guitar>                   
E--------------------------|----------------------------------------|-------------------------|
B---let them ring----X2----|----------------------------------------|-------------------------|
G--------------------------|-----------------------------------X2---|-------------------------|
D-10--9--7--5--3--2--3--5--|----------------------------------------|--just before the 2nd----|
A-10--9--7--5--3--2--3--5--|-10-10-12-10-7-7-8-7-5-3-7-3-3---5-3-7-5|--ending squeeze this in-|
E--8--7--5--3--1--0--1--3--|-------------------------------3--------|--8-7--------------------|

2ND ENDING
<18 sec.>
E--------------------|
B--------------------|
G--------------------|
D---7777777777777-5--|
A---7777777777777-5--|
E---5555555555555-3--|

VERSE
<21sec.> 1st guitar                         <33sec.> lead guitar
E----------------------------------------|E---------------------------------------------------|
B----------------------------------------|B-                    palm mute all                 |
G-----(palm mute a little)---------------|G-----(slur)----------------------------------------|
D----------------------------------------|D--77--7-8-7-77-7-8-7-7-7-7-7---33333333-55555555---|
A-7777777777777777--33333333-55555555-X4-|A--77--7-8-7-77-7-8-7-7-7-7-7---33333333-55555555-X2|
E-5555555555555555--11111111-33333333----|E--55--------55-----5-5-5-5-5---11111111-33333333---|


CHORUS
<47 sec.>
E-----------------------------------------------------|
B---*--*--*--------*--*--*----let ring----------------|
G---5-----7--*-----5-----7----------------------------|
D---5--7--7--3-----5--7--7--8-8-8-8-8-8---------------|
A---3--7--5--3-----3--7--5--8-8-8-8-8-8--555555555----|
E------5-----1--------5-----6-6-6-6-6-6--333333333----|

AFTER-CHORUS THINGY
<1 min. 4 sec.> <1st guitar>
E-----------------------------------------------------------------------------------------------|
B-----------------------------------------------------------------------------------------------|
G-----------------------------------------------------------------------------------------------|
D-10-10-10-10-10-10-10-10-7-7------10-10-10-10-10-10-10-10-10-10-10-10-10-10-10-10-10-7-7-77-7-5|
A-10-10-10-10-10-10-10-10-7-7-[X2]-10-10-10-10-10-10-10-10-10-10-10-10-10-10-10-10-10-7-7-77-7-5|
E--8--8--8--8--8--8--8--8-5-5-------8--8--8--8--8--8--8--8--8--8--8--8--8--8--8--8--8-5-5-55-5-3|
									  
<1 min. 4 sec.>            				      ^^^^^^ up there
E------------------------|--------------------------------------|             ^^^^^^
B------------------------|--------------------------------------|over there  
G------------------------|--------------------------------------|  <<------  played together
D--55-33-22-00-(6)(6)--[X2]--55-33-22-00-55-33-22-00------------|            if you didn't 
A---------------4--4-----|---------------------------4-4--44-45-|            catch that the 
E------------------------|--------------------------------------|            first time

<1 min. 16 sec.><1st guitar> w/ distortion
E-----------------------\-------<<<-this is almost same as 1st verse--|
B--5------1------3-------|------<<<-but a little different------------|
G--6-[8x]-2-[4x]-4-[4x]--|[2x]----------------------------------------|
D--7------3------5-------|------7777777777777777-33333333-55555555----|
A-----------------------/-------7777777777777777-33333333-55555555-2x-|
E-------------------------------5555555555555555-11111111-33333333----|

<1 min. 16 sec.>
lead guitar does the same thing that happens at <33 sec.> 2 times

CHORUS again
<1 min. 42 sec.>  

INTRO again, but changed at end. (as shown below)
<1 min. 59 sec.> __________                                               __________
<1st guitar>     1st ending|                                              2nd ending|
E--------------------------|E-------------------------------------------------------|
B--------let ring----------|B--------let ring---------------------------------------|
G--------------------------|G-------------------------------------------------------|
D-10--9--7--5--3--2--3--5--|D-10--9--7--5--3--2--333333333333333--5555555555555555--|
A-10--9--7--5--3--2--3--5--|A-10--9--7--5--3--2--333333333333333--5555555555555555--|
E--8--7--5--3--1--0--1--3--|E--8--7--5--3--1--0--111111111111111--3333333333333333--|

<1 min. 59 sec.>                       __________                __________
                          1st ending|               2nd ending|
E-------------------------------------|----------|-------------------------|
B-------------------------------------|----------|-------------------------|
G-------------------------------------|----------|-------------------------|
D-------------------------------------|----------|-------ring--------------|
A-10-10-12-10-7-7-8-7-5-3-7-3-3---5-3-|-------7-5|--2-3-5-----7-5-3-5-3----|
E-------------------------------3-----|----------|-------------------------|

CHORUS again
<2 min. 17 sec.>

AFTER-CHORUS THINGY again
<2 min. 34 sec.>

OUTRO
E--5-----1--3--5---|
B--5-----1--3--5---|
G--6-----2--4--6---|
D--7-----3--5--7---|
A--7-----3--5--7---|
E--5-----1--3--5---|





Comments


Popular Mad Caddies tabs & chords
Cup Of Tea Bass Tabs
Souls For Sale Bass Tabs
State Of Mind Bass Tabs
Good Intentions 1 Chords
Preppy Girl 2 Tabs
Rockupation 1 Tabs
Shaving Your Life Tabs
The Gentleman Tabs
Macho Nachos Ukulele
Road Rash Ukulele


Song lyrics



↑ Back to top | Tablatures and chords are parodies/interpretations of the original songs. You may use it for private study, scholarship, research or language learning purposes only
© 2014 AZChords.com Contact us | Privacy policy | DMCA | Add/correct tabs | Request tabs | Top 50 tabs