>
 >
Bridges

Bridges Guitar Tabs

Mad Caddies - Bridges chords, tabs, tablatures, lyrics

Guitar lessons | Add/correct | Request | Top 50 tabs Artists:  A B C D E F G H I J K L M N O P Q R S T U V W X Y Z 0-9

Bridges Guitar Tabs – Mad Caddies

CD, Sheet music, Poster

Do you like Bridges? Share with your friends now
Bass TabsTabs
BRIDGES by Mad Caddies. Album : Rock the Plank (2001)                     1/2
This is probably the best one on this album - the riffs are simple, but
magnificent to play. Great solo with high notes!             
A=left guitar   B=right guitar   A&B=both                     
:                                                             
# intro #A !played slightly with fingers! <<<=pick-slide      
E-------------------------------------|
B-------------------------------------|
G-------------------------------------|
D-------------------------------------|
A---1-------4-------3-------6--/8-<<<-|
E---------------------------------<<<-|
# intro #B !played slightly with fingers! <<<=pick-slide
E-------------------------------------|
B-------------------------------------|
G-------------------------------------|
D-------------------------------------|
A-------------------5-----------<<<<<-|
E---3---------------3-----------<<<<<-|
:
# intro2 #A
E--------------------------------------------------------------------------|
B--------------------------------------------------------------------------|
G--15--141215--141215--141215--141215--141015--141015--1410-7---5-710/12---|
D--------------------------------------------------------------------------|
A--13--121013--121013--121013--121013--12-813--12-813--12-8-5---3-5-8/10---|
E--------------------------------------------------------------------------|
# intro2 #B *=play 14X
E-------------------------------------------------------------------|
B------------------------------------*---------------*--------------|
G----*---------------*--------------8---------------5---------------|
D---5---------------8---------------8---------------5---------------|
A---5---------------8---------------6---------------3---------------|
E---3---------------6-----------------------------------------------|
:
# verse #A&B X2 *=play 15X with palm-muting (A finishes intro2A first)
E-------------------------------|
B--------------------*-------*--|
G----*-------*------8-------5---|
D---5-------8-------8-------5---|
A---5-------8-------6-------3---|
E---3-------6-------------------|
:
# pre-chorus #A&B !play all chords 3X!
E-------------------------------------------------------------------|
B-------------------------------------------------------------------|
G-------8---3---5-------8---3---5-------8---3---5---7---7---7---7---|
D---5---8---3---5---5---8---3---5---5---8---3---5---7---7---7---7---|
A---5---6---1---3---5---6---1---3---5---6---1---3---5---5---5---5---|
E---3---------------3---------------3-------------------------------|
:                                                           
# chorus #A&B *=play 6-7X  #=play 3-4X  m=palm-mute %=pause     >
E---------------------mmmm----mmmm------------------------------>
B----*-------*-----------------------*---------------*-------*-->
G---8-------7-----------------------8--------*------7-------7--->
D---8-------7-------5-55553-5-55553-8-------8-------7-------7--->
A---6-------5-------5-55553-5-55553-6-------8-------5-------5--->
E-------------------3-33331-3-33333---------6------------------->
chorusA&B                             # end-chorus #A&B a=!soloA begins!
-%%%-----------------mmmm----mmmm--|  E---------------------------a-----|
-%%%--#-----*----------------------|  B----*----------------------------|
-%%%-8-----7-----------------------|  G---5---------------8-------8-----|
-%%%-8-----7-------5-55553-5-55553-|  D---5---------------8-------8-----|
-%%%-6-----5-------5-55553-5-55553-|  A---3---------------6-------6-----|
-%%%---------------3-33331-3-33333-|  E---3---------------6-------6-----|
:                                         
to next page...                      
:                                           
BRIDGES                                                                   2/2
:         !B plays intro2B!
# solo #A b=bend-up one step r=release bend p=pull-off h=hammer-on v=vibrato >
E----------------15-----15---------------------------18-----18-----18-----18->
B--17b-17---18b----18b----181518b-r181518b-r181518b----18b----18b----18b----->
G--17b-17-15----------------------------------------------------------------->
D---------------------------------------------------------------------------->
A---------------------------------------------------------------------------->
E---------------------------------------------------------------------------->
soloA
--------18-----20-----18-----21-----18--------20b---20-18-------------18----|
--18br15--20p18--20p18--20p18--20p18--20p18h20------------20b---20-18---20v-|
--------\---------SUPER-FAST-----------------/------------------------------|
:
Then play A&BverseA&BX2 (A finishes soloA first), A&Bpre-chorusA&B,
A&BchorusA&B and A&Bend-chorusA&B (without a + last note).
:
# bridge #A                                                           >
E-------------------------------------3-------3-------3--------------->
B-----------------------------------3-------1------------------------->
G---------------------------------------------------3-------2-3-2-0--->
D--------------------------------------------------------------------->
A--------------------------------------------------------------------->
E---3----------------------------------------------------------------->
# bridge #B f=play flute on a fret between notes... v=vibrato         >
E--------------------------------------------------------------------->
B--------------------------------------------------------------------->
G------------------------------/1512f13------------------------------->
D---5--------------------------/17------------------------------------>
A--------------------------------------------------------------------->
E--------------------------------------------------------------------->
bridgeA
-----3-------3-------3-----------------|
---3-------1---------------------------|
-------------------3-------2-3-2-0---0-|
-----------------------------------3---|
---------------------------------------|
---------------------------------------|
bridgeB 
---------------------------------------|
---------------------------------------| > Then play A&Bpre-chorusA&B and
---v---v--12v-12v-12v-12v--------------|   A&BchorusA&B.
---------------------------3-2---3-2---|
-------------------------------3-----3-|
---------------------------------------|
:
# end-chorus3 #A
E---------------------------------------|
B---------------------------------------|
G---5-------5---5-5---------------------|
D---5-------5---5-5-8-------8-------5---|
A---3-------3---3-3-6-------5-------5---|
E---3-------3---3-3-----------------3---|
# end-chorus3 #B
E---------------------------------------|
B---------------------------------------|
G---5---5-5---5-5-5---------------------|
D---5---5-5---5-5-5-8-------8-------5---|
A---3---3-3---3-3-3-6-------5-------5---|
E---3---3-3---3-3-3-6-------6-------3---|
:
Fantastic!





Comments


Popular Mad Caddies tabs & chords
Booze Cruise Bass Tabs
Bridges Bass Tabs
Last Breath 1 Bass Tabs
Betty Chords
Mary Melody Chords
Contraband Tabs
Depleted Salvo Tabs
S.O.S. Tabs
Weird Beard Tabs
Shut The Door Ukulele


Song lyrics



↑ Back to top | Tablatures and chords are parodies/interpretations of the original songs. You may use it for private study, scholarship, research or language learning purposes only
© 2014 AZChords.com Contact us | Privacy policy | DMCA | Add/correct tabs | Request tabs | Top 50 tabs