» » »

Madball, Tight Rope Tabs (ver.1)

Artists:  A B C D E F G H I J K L M N O P Q R S T U V W X Y Z # 

Tight Rope Tabs (ver.1)

Madball Tabs
 Rating:
4/5 (4 votes)
Tight Rope lessons Tabs too difficult? Try these video lessons and learn fast
                INTRO
a|-----------------------------------------------|
b|-----------------------------------------------|
g|-----------------------------------------------|
d|----0------3------6--1-4--0------3------6--1-4-|
a|-00-0---00-3---33-6--1-4--0---00-3---33-6--1-4-|
D|-00-0---00-3---33-6--1-4--0---00-3---33-6--1-4-|  -
PM ..     ..     ..             ..     ..   

RIT
a|------------------------------------------------------------|--------------------|
b|------------------------------------------------------------|--------------------|
g|------------------------------------------------------------|5/7-777-77/8\7-777--|
d|-00---00---------00---00---------33---33---------66---6-1-4-|5/7-777-77/8\7-777--|
a|-00-0-00-000000--00-0-00-000000--33-3-33-333333--66-6-6-1-4-|3/5-555-55/6\5-555--|
D|-00-0-00-000000--00-0-00-000000--33-3-33-333333--66-6-6-1-4-|--------------------|
PM    .    ......     .    ......     .    ......     .

VERSO
a|-----------------------------------------|
b|-----------------------------------------|
g|------------------5\7777777---5555--3333-|
d|-00---00----------5\7777777---5555--3333-|
a|-00-0-00-000000---3\5555555---3333--1111-|
D|-00-0-00-000000--------------------------|
PM    .    ......     

RIT
a|------------------------------------------------------------|--------------------|
b|------------------------------------------------------------|--------------------|
g|------------------------------------------------------------|5/7-777-77/8\7-777--|
d|-00---00---------00---00---------33---33---------66---6-1-4-|5/7-777-77/8\7-777--|
a|-00-0-00-000000--00-0-00-000000--33-3-33-333333--66-6-6-1-4-|3/5-555-55/6\5-555--|
D|-00-0-00-000000--00-0-00-000000--33-3-33-333333--66-6-6-1-4-|--------------------|
PM    .    ......     .    ......     .    ......     .

VERSO
a|----------------------------------------|
b|----------------------------------------|
g|------------------5\7777777--5555--3333-|
d|-00---00----------5\7777777--5555--3333-|
a|-00-0-00-000000---3\5555555--3333--1111-|
D|-00-0-00-000000-------------------------|
PM    .    ......     

RIT                                                              ??????????
a|--------------------------------------------------------------|----------|
b|--------------------------------------------------------------|----------|
g|--------------------------------------------------------------|----------|
d|-00---00---------00---00---------33---33---------66---6-1-4-0-|4-3-0-1-0-|
a|-00-0-00-000000--00-0-00-000000--33-3-33-333333--66-6-6-1-4-0-|4-3-0-1-0-|
D|-00-0-00-000000--00-0-00-000000--33-3-33-333333--66-6-6-1-4-0-|4-3-0-1-0-|
PM    .    ......     .    ......     .    ......     .          . . .


BRIDGE                                 ??????
e|-------------------------------------------|
b|-------------------------------------------|
g|-------55-57-7-7-7--------55-57-7-7--------|
d|-1-0--055-57-7-7-7----10-055-57-7-7--4-3-0-|
a|-1-0--033-35-5-5-5----10-033-35-5-5--4-3-0-|
D|-1-0--0---------------10-0-----------4-3-0-|
PM                                     . . .
 
I HOPE
e|--------------------|
b|--------------------|
g|------55-5-77777777-|
d|-1-0-055-5-77777777-|
a|-1-0-033-3-55555555-|
D|-1-0-0--------------|

BRIDGE/OUTRO                          ?????????
e|---------------------------------------------|
b|---------------------------------------------|
g|------55-57-7-7-7----32-255-57-7-7-----------|
d|-1-0-055-57-7-7-7----32-255-57-7-7--4-3-0-1-0|
a|-1-0-033-35-5-5-5----10-033-35-5-5--4-3-0-1-0|
D|-1-0-0------------------------------4-3-0-1-0|
PM                                    . . . . .



By DonD
            
Submit corrections

comments powered by Disqus
↑ Back to top | Madball Tabs for Tight Rope. Lyrics for acoustic guitar and electric guitar. Tablatures and chords are parodies/interpretations of the original songs. You may use it for private study, scholarship, research or language learning purposes only